» » »

Powderfinger, Since You've Been Gone Tabs (ver.1)

Artists:  A B C D E F G H I J K L M N O P Q R S T U V W X Y Z # 

Since You've Been Gone Tabs (ver.1)

Powderfinger Tabs
Rating:
0/5 (0 votes)
Since You've Been Gone lessons Tabs too difficult? Try these video lessons and learn fast
                POWDERFINGER
SINCE YOU'VE BEEN GONE
VULTURE STREET
BY RYAN

GUITARS ARE TUNDER DOWN HALF A STEP!!!

INTRO

Eb|-------------------------|
Bb|-------------------------|
Gb|-------7--9--9b11-9--7---|
Db|-9--9------------------9-|
Ab|-------------------------|
Eb|-------------------------|


VERSES

GUITAR TWO PLAYS LITTLE TUNES AND LICKS AND STUFF, BUT I HAVEN'T TABBED
THOSE BITS OUT YET
Eb|---------------------------------------------------|
Bb|--4------------7---------------9-------------------|
Gb|--4------------7---------------9-------------------|
Db|--4------------7---------------9-------------------|
Ab|--2------------5---------------7-------------------|
Eb|---------------------------------------------------|

CHORUS

GUITAR ONE

Eb|-2--3--3--2-----3-2------------------|
Bb|-3--3--3--3--3--3-3--2---2--3--3--2--|
Gb|-2--2--2--2--0--2-2--2---2--2--2--2--|
Db|-0--0--0--0--0--0-0--2---2--2--2--2--|
Ab|-------------x-------0---0--0--0--0--|
Eb|-------------3-----------------------|

GUITAR TWO

Eb|----------2--------0----0-----0---0----0-7b-0-3b-0-5-|
Bb|-------4---(4)-----0-3b-------0---0----0----0--------|
Gb|------------------------------2b4-2b4r2--------------|
Db|-----------------------------------------------------|
Ab|-----------------------------------------------------|
Eb|-----------------------------------------------------|
            

comments powered by Disqus
↑ Back to top | Powderfinger Tabs for Since You've Been Gone. Lyrics for acoustic guitar and electric guitar. Tablatures and chords are parodies/interpretations of the original songs. You may use it for private study, scholarship, research or language learning purposes only