>
 >
Process This

Process This Guitar Tabs

Powderfinger - Process This chords, tabs, tablatures, lyrics

Guitar lessons | Add/correct | Request | Top 50 tabs Artists:  A B C D E F G H I J K L M N O P Q R S T U V W X Y Z 0-9

Process This Guitar Tabs – Powderfinger

CD, Sheet music, Poster

Do you like Process This? Share with your friends now
Tabs


Standard Tuning

Intro

Rhythm Guitar
E|------------------------------------------------------------------|
B|------------------------------------------------------------------|
G|------------------------------------------------------------------|
D|-7--5-7--5-7--5-7-10-10/-------------------------------------x2---|
A|-5--3-5--3-5--3-5-8--8-/----5--3-5--3-8-8-8-8-8-8-8-8-/-----------|
E|----------------------------3--1-3--1-6-6-6-6-6-6-6-6-/-----------|

Verse
E|------------------------------------------------------------------|
B|------------------------------------------------------------------|
G|------------------------------------------------------------------|
D|------7-------5---7--------5----7--------5----7-----10-----10/----|
A|------5-------3---5--------3----5--------3----5-----8------8-/----|
E|------------------------------------------------------------------|
 |                                                                  |
 |                                                                  |
E|------------------------------------------------------------------|
B|------------------------------10--10--10--10--10--10--------------|
G|------------------------------12b-12b-12b-12b-12b-12b-12brp10-----|
D|-------------------------------------------------------------12~--|
A|------------------------------------------------------------------|
E|------------------------------------------------------------------|

E|------------------------------------------------------------------|
B|------------------------------------------------------------------|
G|------------------------------------------------------------------|
D|------------------------------------------------------------------|
A|----5-------3---5---------3----5-------3----8--8--8--8--8--8--8--8|
E|----3-------1---3---------1----3-------1----6--6--6--6--6--6--6--6|
 |                                                                  |
 |                                                                  |
E|------------------------------------------------------------------|
B|---------------------------------------10--10--10--10--10--10--10-|
G|---------------------------------------12b-12b-12b-12b-12b-12b-12b|
D|------------------------------------------------------------------|
A|------------------------------------------------------------------|
E|------------------------------------------------------------------|

E|------------------------------------------------------------------|
B|------------------------------------------------------------------|
G|------------------------------------------------------------------|
D|------7-------5---7--------5----7--------5----7-----10-----10/----|
A|------5-------3---5--------3----5--------3----5-----8------8-/----|
E|------------------------------------------------------------------|
 |                                                                  |
 |                                                                  |
E|------------------------------------------------------------------|
B|-----10-~---------------------10--10--10--10--10--10--------------|
G|-----12b~---------------------12b-12b-12b-12b-12b-12b-12brp10-----|
D|-------------------------------------------------------------12~--|
A|------------------------------------------------------------------|
E|------------------------------------------------------------------|
E|------------------------------------------------------------------|
B|------------------------------------------------------------------|
G|------------------------------------------------------------------|
D|------------------------------------------------------------------|
A|----5-------3---5---------3----5-------3----8--8--8--8--8--8--8--8|
E|----3-------1---3---------1----3-------1----6--6--6--6--6--6--6--6|
 |                                                                  |
 |                                                                  |
E|------------------------------------------------------------------|
B|------------------------------------------------------------------|
G|------------------------------------------------------------------|
D|------------------------------------------------------------------|
A|------------------------------------------------------------------|
E|------------------------------------------------------------------|


Pre-chorus
E|------------------------------------------------------------------|
B|------------------------------------------------------------------|
G|------------------------------------------------------------------|
D|--7---------------7-----------------------------------------------|
A|--5-3-------------5--3------------5---3--5--3--8-8-8-8-8-8-8-8----|
E|------3--1--0--1------3--1--0--1--3---1--3--1--6-6-6-6-6-6-6-6----|
 |                                                                  |
 |                                                                  |
E|------------------------------------------------------------------|
B|--6---------------6-----------------------------------------------|
G|--8b--------------8b----------------------------------------------|
D|------------------------------------------------------------------|
A|------------------------------------------------------------------|
E|------------------------------------------------------------------|

E|------------------------------------------------------------------|
B|------------------------------------------------------------------|
G|------------------------------------------------------------------|
D|--7---------------7-----------------------------------------------|
A|--5-3-------------5--3------------5---3--5--3--8-8-8-8-8-8-8-8----|
E|------3--1--0--1------3--1--0--1--3---1--3--1--6-6-6-6-6-6-6-6----|
 |                                                                  |
 |                                                                  |
E|------------------------------------------------------------------|
B|--6---------------6-----------------------------------------------|
G|--8b--------------8b----------------------------------------------|
D|------------------------------------------------------------------|
A|------------------------------------------------------------------|
E|------------------------------------------------------------------|

Chorus x2
E|------------------------------------------------------------------|
B|-10---10----11---10----11----10-----------------------------------|
G|-10---10----10---10----10----10-----9---9----10---9----10---9-----|
D|-10---10----10---10----10----10-----10--10---10---10---10---10----|
A|-8----8-----8----8-----8-----8------10--10---10---10---10---10----|
E|------------------------------------8---8----8----8----8----8-----|
 |                                                                  |
 |                                                                  |
E|------------------------------------------------------------------|
B|------------------------------------------------------------------|
G|--------10------10----10---9-------------9------10--9---10-9-----|
D|---10------10------10----10--10------------10----------------10---|
A|-8----8------8-----------------------10-------10--10--10--10---10-|
E|-----------------------------------8----8-------------------------|
Verse

Chorus x 4

Solo (lead guitar)
E|------------------------------------------------------------------|
B|------------------------------------------------10----12brb-12~---|
G|-----5-5-7~------5-5--7/10-10--9-9-9-----------10----12brb-12~---|
D|-/7-----------/7----------------------/10h12-12----12-------------|
A|------------------------------------------------------------------|
E|------------------------------------------------------------------|

E|--10-----13-----15-~----10-----13-----15-~---10-----8-------6-~---|
B|--13b----16b----18b~----13b----16b----18b~---13b----11b-----9b~---|
G|------------------------------------------------------------------|
D|------------------------------------------------------------------|
A|------------------------------------------------------------------|
E|------------------------------------------------------------------|

E|----7h8p7------10---------------------10--------------------------|
B|----------10-8----8-6h8~---8h9p8----------------------------------|
G|---------------------------------10-7----7-5h7~---5h7-5~----------|
D|------------------------------------------------------------------|
A|------------------------------------------------------------------|
E|------------------------------------------------------------------|
 
Chorus again x4
Then lead guitar
E|------------------------------------------------------------------|
B|--10---------10--10--10--10---------------------------------------|
G|--10---------10--10--10--10----9----------------------------------|
D|--10---------10--10--10--10----10--------strum-quite-a-few-times--|
A|--8----------8---8---8---8-----10-------------then----------------|
E|-------------------------------8----------------------------------|
 
E|-------8-8-----8-8-----8-8----------------------------------------|
B|-------8-8-----8-8-----8-8----------------------------------------|
G|---10b-----10b-----10b-------repeat a few times-------------------|
D|------------------------------then--------------------------------|
A|------------------------------------------------------------------|
E|------------------------------------------------------------------|

E|------------------8-----------------------------------------------|
B|------------------11b--slow bend----------------------------------|
G|---10b-10br-8-----------------------------------------------------|
D|--------------10--------------------------------------------------|
A|------------------------------------------------------------------|
E|------------------------------------------------------------------|

The end. Hope you enjoy! :)





Comments


Popular Powderfinger tabs & chords
Belter Bass Tabs
Don't Wanna Be Left Out 1 Bass Tabs
My Kind Of Scene Chords
Surviving Chords
Think It Over Chords
Black Tears Tabs
Day You Come Tabs
Privateman Tabs
Roll Right By You 2 Tabs
Sunsets 1 Tabs


Song lyrics



↑ Back to top | Tablatures and chords are parodies/interpretations of the original songs. You may use it for private study, scholarship, research or language learning purposes only
© 2014 AZChords.com Contact us | Privacy policy | DMCA | Add/correct tabs | Request tabs | Top 50 tabs