» » »

Powderfinger, Privateman Tabs (ver.1)

Artists:  A B C D E F G H I J K L M N O P Q R S T U V W X Y Z # 

Privateman Tabs (ver.1)

Powderfinger Tabs
 Rating:
4/5 (4 votes)
Privateman lessons Tabs too difficult? Try these video lessons and learn fast
1
                
This song works best with two guitars. I've basically tabbed the main
guitar part in each section.

Verse

E-------------------------------
B----------------------------9--
G--11--x-9--x-11--x-9--x-11-----
D-------------------------------
A-------------------------------
E-------------------------------

Prechorus

E---------------------------------
B--12--x-10--x-9------------------
G-----------------x-11--x-9--x-11-   x 3
D---------------------------------
A---------------------------------
E---------------------------------

E---------------------------------
B--12--x-10--x-9------------------
G-----------------9---------------
D---------------------------------
A---------------------------------
E---------------------------------

              [--let ring-----

prechorus second guitar

E--7-----7-----------2-----
B--7-----7-----7-----2-----
G--9-----8-----6-----3-----
D--9-----9-----6-----4-----
A--7-----9-----4-----4-----
E--------7-----------2-----

chorus

E---7--7--7--7--7--7--7--7--7--7--7--7--7--7--7--7--
B---7--7--7--7--7--7--7--7--7--7--7--7--7--7--7--7--
G---9--9--9--8--8--8--9--9--9--9--9--8--8--8--9--9--
D---9--9--9--9--9--9--9--9--9--9--9--9--9--9--9--9--
A---7--7--7--7--7--7--7--7--7--7--7--7--7--7--7--7--
E---------------------------7--7--7--7--7--7--7--7--

E--------------------------2--2--2--2--2--2--2--2--
B--7--7--7--7--7--7--7--7--2--2--2--2--2--2--2--2--
G--6--6--6--6--6--6--6--6--3--3--3--3--3--3--3--3--
D--6--6--6--6--6--6--6--6--4--4--4--4--4--4--4--4--
A--4--4--4--4--4--4--4--4--4--4--4--4--4--4--4--4--
E--------------------------2--2--2--2--2--2--2--2--

E---7--7--7--7--7--7--7--7--7--7--7--7--7--7--7--7--
B---7--7--7--7--7--7--7--7--7--7--7--7--7--7--7--7--
G---9--9--9--8--8--8--9--9--9--9--9--8--8--8--9--9--
D---9--9--9--9--9--9--9--9--9--9--9--9--9--9--9--9--
A---7--7--7--7--7--7--7--7--7--7--7--7--7--7--7--7--
E---------------------------7--7--7--7--7--7--7--7--

E--------------------------5--5--5--5--5--5--5--5--
B--7--7--7--7--7--7--7--7--5--5--5--5--5--5--5--5--
G--6--6--6--6--6--6--6--6--6--6--6--6--6--6--6--6--
D--6--6--6--6--6--6--6--6--7--7--7--7--7--7--7--7--
A--4--4--4--4--4--4--4--4--7--7--7--7--7--7--7--7--
E--------------------------5--5--5--5--5--5--5--5--

Verse

Prechorus

Chorus


Bridge (you need to whammy bar these chords to make it sound right)

E-----------0~---0------------------0~------
B----------0~------3-2-0-----------0~----3~-
G---------0~-------------2-0------5~--------
D--------2~----------------------5~---------  x 2
A-------2~--------------------3~------------
E---0~--------------------------------------

E---------3~---3-2---0------------------------------
B------------------0---3----3h5~--5~-5-5p3--3--3----
G------------------------0-----------------------0--
D--2--2---------------------------------------------
A---------------------------------------------------
E---------------------------------------------------

E---------3~---3-2---0------------7------7-----7--7--
B------------------0---3----3/5~------5-----5---5--5-
G------------------------0---------------------------
D--2--2----------------------------------------------
A----------------------------------------------------
E----------------------------------------------------

Verse

Prechorus

Chorus repeat end
            
Submit corrections

comments powered by Disqus
↑ Back to top | Powderfinger Tabs for Privateman. Lyrics for acoustic guitar and electric guitar. 1 Tablatures and chords are parodies/interpretations of the original songs. You may use it for private study, scholarship, research or language learning purposes only