» » »

Powderfinger, Passenger Tabs (ver.1)

Artists:  A B C D E F G H I J K L M N O P Q R S T U V W X Y Z # 

Passenger Tabs (ver.1)

Powderfinger Tabs
Rating:
0/5 (0 votes)
Passenger lessons Tabs too difficult? Try these video lessons and learn fast
                
Hi all, this is my first transcript so please excuse any incorrect sections.
I play the chords like this.

  G5  D*  Bm  Em  C   Am  A   C#m  D
e-3---x---2---0---0---0---0---4----5-------
B-3---3---3---0---1---1---2---5----7-------
G-0---2---4---0---0---2---2---6----7-------
D-0---0---4---2---2---2---2---6----7-------
A-x---0---2---2---3---0---0---4----5-------
E-3---2---x---0---x---x---x---x----x-------


Bars are indicated by a "|" symbol. I've tried to put the words in the
right spot.
The G5, A and D chords in the choruses actually change half a beat
before the bar but it's a bit hard to tab.
You can play the D* as a normal D (xx0232) but I think the other
way sounds more like the way they play it.
Anyway, here it is:



INTRO:

G5    |D* Bm |Em    |Em    |

G5    |D* Bm |Em    |Em    |


VERSE 1:


G5    |D*           Bm              |Em            |Em    |



G5    |D*        Bm              |Em        |Em                     |



C                         |Em           |Bm             |Em             |


bound by what you are            you
Am                |Am               |


PRECHORUS:


e-----------------|------------------|-----------------|
B-----------------|------------------|-----------------|
G-----6-------6---|-----7-------7----|-----6-------6---|
D---6---6---6---6-|---7---7---7---7--|---6---6---6---6-|
A-4-------4-------|-5-------5--------|-4-------4-------|
E-----------------|------------------|-----------------|


                                      (down strumming)
e-----------------|------------------|-----------------|
B-----------------|------------------|-----------------|
G-----7-------7---|-----6-------6----|-6-6-6-6-6-6-6-6-|
D---7---7---7---7-|---6---6---6---6--|-6-6-6-6-6-6-6-6-|
A-5-------5-------|-4-------4--------|-4-4-4-4-4-4-4-4-|
E-----------------|------------------|-----------------|



CHORUS:

if you want 
Bm                |Bm G5      |A       |A      |


Bm                  |Bm    G5        |A   |A    |


Bm                  |Bm  G5         |A    |A      |


if you want ...
Bm     C#m       |D   A       |D      |D      |


VERSE 2:

G5     |D*        Bm          |Em           |Em        |


G5    |D*     Bm              |Em      |Em                   |


C                         |Em           |Bm             |Em            =


bound by ......
Am                |Am             |

PRECHORUS:

e-----------------|------------------|-----------------|
B-----------------|------------------|-----------------|
G-----6-------6---|-----7-------7----|-----6-------6---|
D---6---6---6---6-|---7---7---7---7--|---6---6---6---6-|
A-4-------4-------|-5-------5--------|-4-------4-------|
E-----------------|------------------|-----------------|


                                      (down strumming)
e-----------------|------------------|-----------------|
B-----------------|------------------|-----------------|
G-----7-------7---|-----6-------6----|-6-6-6-6-6-6-6-6-|
D---7---7---7---7-|---6---6---6---6--|-6-6-6-6-6-6-6-6-|
A-5-------5-------|-4-------4--------|-4-4-4-4-4-4-4-4-|
E-----------------|------------------|-----------------|


CHORUS:

if you want 
Bm                |Bm G5      |A       |A      |


Bm                  |Bm    G5        |A   |A    |


Bm                  |Bm  G5         |A    |A      |


if you want ....
Bm     C#m       |D   A       |D      |F#m      |


OUTRO:
(trumpets)                     La la la la la la la  la la la la la la la
Bm     C#m       |D           |A                    |A                 |

Repeat  and fade till end with some "if you want to be a passenger"s thrown
in
            

comments powered by Disqus
↑ Back to top | Powderfinger Tabs for Passenger. Lyrics for acoustic guitar and electric guitar. Tablatures and chords are parodies/interpretations of the original songs. You may use it for private study, scholarship, research or language learning purposes only