>
 >
On My Mind Complete

On My Mind Complete Guitar Tabs

Powderfinger - On My Mind Complete chords, tabs, tablatures, lyrics

Guitar lessons | Add/correct | Request | Top 50 tabs Artists:  A B C D E F G H I J K L M N O P Q R S T U V W X Y Z 0-9

On My Mind Complete Guitar Tabs – Powderfinger

CD, Sheet music, Poster

Do you like On My Mind Complete? Share with your friends now
Tabs
_____  
                 ____     _____   __ __ __   _______   |  ___|   _____  
                |  _  \ /  __  \ |  \/ \/ | |   _   \  | |___   |  [] \
                  |_| | | |  | | |        | |  | |   | |  ___|  |  _  | 
                | ___/  | |__| | |        | |  |_/   | | |___   | | \ \
                |_|      \_____/  \__/\__/  |______ /  |_____|  |_|  \_|  
                                                   _____                   
                   _____      ___  __    _____    |  ___|   _____       
                  |   __| [_] |  \/  |  /  ___\   | |___   |  [] \     
                  |  |__  | | |      |  | |[_ _]  |  ___|  |  _  |      
                  |  ___| | | |  ^   |  | |_| |   | |___   | | \ \         
                  |_|     |_| |_/ \__|   \____/   |_____|  |_|  \_| 

                              _________________________
                             |                         |
                             | ARTIST: POWDERFINGER    |
                             | SONG: ON MY MIND        |
                             |_________________________|
  
                                           GDAY!!!
                     IF ANYONE KNOWS ANY DIFFERENT WAYS TO PLAY THIS, 
                                 OR PERHAPS HELP ON THE SOLO,    
                             CAN YOU PLEASE EMAIL ME? CHEERS.
       I HAVE PUBLISHED THE POWER CHORDS, BUT HAVE TRANSCRIBED THE SONG INTO 
                                  WHAT IS USED, THE BAR CHORDS. 
                      I AM CONSTANTLY UPODATING THIS, SO DROP IN SOON!!
                             LET ME KNOW WHAT YOU THINK! THANKS :)
   
|------------|
| SONG ORDER |
|------------| 

INTRO X4
VERSE X4
CHORUS X1
BRIDGE 1 X1
SOLO 1 X1
VERSE X4 WITH RUN
CHORUS X1
BRIDGE 2 X1
INTRO X 4
SOLO 2 X2
END CHORUS X2

|-------------------|
|       INTRO       |
|-------------------|

(POWER-CHORDS)

E-----------------|
B-----------------|
G-----------------|
D---8-8-8-8-8\0---|
A---8-8-8-8-8\0---|
E---6-6-6-6-6\0---|

(BAR-CHORDS)
    A   A   A   A   A
E|------------------------|
B|------------------------|
G|--6---6---6---6---6/0---|
D|--7---7---7---7---7/0---|
A|--7---7---7---7---7/0---|
E|--5---5---5---5---5/0---|


|-------------------|
|      VERSE        |
|-------------------|

(POWER-CHORDS)

E--------------------------------|
B--------------------------------|
G--------------------------------|
D--8-8-8-8-8-8-6-6-6-11-11-11----|
A--8-8-8-8-8-8-6-6-6-11-11-11----|
E--6-6-6-6-6-6-4-4-4-13-13-13----|

(BAR-CHORDS)
    A   A   A   A   A   A   G   G   G   D  D  D
E|---------------------------------------------------|
B|---------------------------------------------------|
G|--6---6---6---6---6---6---4---4---4--11--11--11----|
D|--7---7---7---7---7---7---5---5---5--12--12--12----|
A|--7---7---7---7---7---7---5---5---5--12--12--12----|
E|--5---5---5---5---5---5---3---3---3--10--10--10----|
 
|-------------------|
|      CHORUS       |
|-------------------|

(POWER-CHORDS)

E----------------------------------------------------------------------------------|
B----------------------------------------------------------------------------------|
G----------------------------------------8--8--8--8---8----8--8--8--8----8---------|
D-8--8--8--8----8----8--8--8--8----8-----8--8--8--8---8----8--8--8--8----8---------|
A-8--8--8--8----8----8--8--8--8----8-----6--6--6--6---6----6--6--6--6----6---------|
E-6--6--6--6----6----6--6--6--6----6------------------______------        ______---|
                 _____              _____             LET RING          LET RING    
               LET RING              LET RING                                     

(BAR-CHORDS)

THE IS A STRUMMING PATTERN, EITHER THAT OR ITS JUST BASS AND DRUMS. WHATEVER.
     A         D
E---------|----------|
B---------|----------|
G----6----|----11----|
D----7----|----12----|
A----7----|----12----|
E----5----|----10----|


|-------------------|
|      BRIDGE       |
|-------------------|

(POWER-CHORDS)

E----------------------------|
B----------------------------|
G---10-----8------6----------|
D---10-----8------6------3---|
A---8------6------4------3---|
E------------------------1---|

(BAR-CHORDS)
    E    D    C    B
E--------------------------|
B--------------------------|
G---13---11---9----8-------|
D---14---12---10---9-------|
A---14---12---10---9-------|
E---12---10---8----7-------|

|-------------------|
|      BRIDGE 2     |
|-------------------|

(POWER-CHORDS)

E-----------------------------------|
B-----------------------------------|
G---10-----8------6-------------8---|
D---10-----8------6------3------8---|
A---8------6------4------3------6---|
E------------------------1----------|

(BAR-CHORDS)
    E    D    C    B   A
E---------------------------|
B---------------------------|
G---13---11---9----8---6----|
D---14---12---10---9---7----|
A---14---12---10---9---7----|
E---12---10---8----7---5----|

|---------------------|
| RUN OF SECOND VERSE |
|---------------------|
    LISTEN TO SONG

E-----------------------------------|
B-----------------------------------|
G-----------------------------------|
D------------6-8-6-6-6-6-11-11-11---| 2 TIMES WHILE IN VERSE
A-------6-8--------6-6-6-11-11-11---|
E---6-9------------4-4-4-13-13-13---|

                E-------------------|
                B-------------------|
                G--9-9-9-11-11-11---|
                D-101010-12-12-12---|
                A-101010-12-12-12---|
                E--8-8-8-10-10-10---|

|-------------------|
|      SOLO 1       |
|-------------------|


E-------------------------------------------------|
B--6-6-6-6-6-6-6-6-6--6-6-6-6-6-6-6--6-6-6-6-6-6--|
G--8-8-8-8-8-8-8-8-8--8-8-8-8-8-8-8--6-6-6-6-6-6--|
D----while bending--------------------------------|
A-------------------------------------------------|
E-------------------------------------------------|

E----6666666-9999999------------------------------|
G----6666666-9999999--8-8-6-8-6-8----9-9-9-9-9----|
B---------------------8-8-6-8-6-8---bend slightly-|
D-------------------------------------------------|
A-------------------------------------------------|
E-------------------------------------------------|

|-------------------|
|    SOLO 2         |
|-------------------|

E---6-6-6-6-6-6-6-6-6-6-4-4-4-4-4-4-3-3-3-3---|
B---6-6-6-6-6-6-6-6-6-6-4-4-4-4-4-4-4-4-4-4---|
G---------------------------------------------|
D---------------------------------------------| UNTIL END
A---------------------------------------------|
E---------------------------------------------|
 
E---6-6-6-6-6-6-6-6-6-6-4-4-4-4-4-4/6-6-6-6-6-6---|
B---6-6-6-6-6-6-6-6-6-6-4-4-4-4-4-4/6-6-6-6-6-6---|
G-------------------------------------------------|
D-------------------------------------------------|
A-------------------------------------------------|
E-------------------------------------------------|  

|-------------------|
|   END CHORUS      |
|-------------------|

GUITAR TWO WITH GUITAR ONE PLAYING SOLO 2
E------6-----------6------------------6----------6---------|------------|
B--------9----6-------9----6------------9-----5----9----5--|------------|
G------------------------------8--6------------------------|--8-8-8-8---|
D---------------------------bend slightly------------------|--8-8-8-8---|
A----------------------------------------------------------|--6-6-6-6---|<-FINISH ON
E----------------------------------------------------------|------------|     
                                                            A   A   A   A     OR
                                                          E|------------|
                                                          B|------------|<-FINISH ON
                                                          G|--6-6-6-6---|
                                                          D|--7-7-7-7---|
                                                          A|--7-7-7-7---|
                                                          E|--5-5-5-5---|
|------------|
| SONG ORDER |
|------------| 

INTRO X4
VERSE X4
CHORUS X1
BRIDGE X1
SOLO 1 X1
VERSE X4 WITH RUN
CHORUS X1
BRIDGE 2 X1
INTERLUDE X 4
SOLO 2 X2

|------------|
|   LYRICS   |
|------------| 

A                        G            D 
Baby I've got you on my mind, honey you won't ever know
A                           G              D 
How much I need you by my side, promise you won't ever go
A                               G         D 
I won't take no from you this time
A                         G         D 
Baby I've got you on my mind 
A
'Cause honey I've got to show (I won't wait for another day)
A
Just what I can do (My heart died when you loosed the chains)
D
Because I think I know (I won't wait for another day)
D
What you are going through (My heart died when you loosed the chains)
E                        B               C                    D               A
I hope you feel it the way I feel it, I hope you feel it the way I feel it too.
A                             G                D 
So if I had this all my way, honey you won't ever know
A                                     G            D 
I'd be there through every night and day, promise you won't ever go
A                             G             D 
I won't hold back from you this time
A                        G             D 
Baby I've got you on my mind



THATS IT BOYS AND GALS. YOU ALL ENJOY, ANY COMMENTS CURSES OR REQUESTS FOR TABS
                            PLEASE RATE MY TAB!!!!!

                    AND REMEMBER KIDS, DREAMS COME TRUE!!!





Comments


Popular Powderfinger tabs & chords
My Kind Of Scene Bass Tabs
All Of The Dreamers Chords
How Far Have We Really Come? Chords
My Kind Of Scene Chords
My Kinda Scene Chords
Wishing On The Same Moon Chords
Over My Head Tabs
These Days Tabs
Im On Your Side Ukulele
Sink Low Ukulele


Song lyrics



↑ Back to top | Tablatures and chords are parodies/interpretations of the original songs. You may use it for private study, scholarship, research or language learning purposes only
© 2014 AZChords.com Contact us | Privacy policy | DMCA | Add/correct tabs | Request tabs | Top 50 tabs