» » »

Nobody Sees Tabs (ver.1)

Artists:  A B C D E F G H I J K L M N O P Q R S T U V W X Y Z # 

Nobody Sees Tabs (ver.1)

Powderfinger
Rating:
5/5 (6 votes)

Tabs too difficult? Try these video lessons and learn fast.
                Just because noone else has done it yet

Standard tuning

e |------------------------------------------------------------------|
B |----------------------------------------------------8/10----------|
G |-----------------------------5---7-5-7/9-9/10-10/12---------------|
D |----------3--------3-5/7-5h7--------------------------------------|
A |------3h5-------5-------------------------------------------------|
E |--3h5-------------------------------------------------------------|


e |--------------------------------------------------------------------|
B |---10-10-10-------11v-11v-11-11-11-11--10--10-----------------------|
G |------------12-10------------------------------(12)b14r12-10----10--|
D |-------------------------------------------------------------12-----|
A |--------------------------------------------------------------------|
E |--------------------------------------------------------------------|

e |--------------------------------------------------------------------|
B |--------------------------------------------------------------------|
G |--12-10-12v-12v---------------------10--12-10-12b14-12b14-12b14r12--|
D |------------------------------10h12---------------------------------|
A |------------------------10h12---------------------------------------|
E |-------------------8h10---------------------------------------------|

e |--------------------------13v-------13v-------------------------------|
B |----------------------------------------------13v-------13v-------13v-|
G |---10----10--12-10--12b14-----12b14-----12b14-----12b14-----12b14-----|
D |------12--------------------------------------------------------------|
A |----------------------------------------------------------------------|
E |----------------------------------------------------------------------|


e |--------------------------------------------------------------|
B |---------13v-------13v-------13v------------------------------|
G |---12b14-----12b14-----12b14-------12b14r12-10----10h12-------|
D |-----------------------------------------------12-------------|
A |--------------------------------------------------------------|
E |--------------------------------------------------------------|

Then back to Bernard
            
Tabs too difficult? Try these video lessons and learn fast.


comments powered by Disqus
↑ Back to top | Tablatures and chords are parodies/interpretations of the original songs. You may use it for private study, scholarship, research or language learning purposes only