» » »

Powderfinger, Lost And Running Chords (ver.1)

Artists:  A B C D E F G H I J K L M N O P Q R S T U V W X Y Z # 

Lost And Running Chords (ver.1)

Powderfinger Tabs
Rating:
4/5 (3 votes)
Lost And Running lessons Tabs too difficult? Try these video lessons and learn fast
                New single from Powderfinger. 
Fanning rule!
* This sounds good on acoustic  

Intro
C F C F

e|-------0---------------------------------3-------|
B|---------1----1h3-1------------1---1-------1-----|
G|--------------------0------0h2---2---2-------2---|
D|-----------2----------0--3-------------3---------|
A|---3---------------------------------------------|
E|-------------------------------------------------|

Verse
C
Oh I was sick and tired of waiting lost
F
And you were mad at me for so much more
C
I was bored listening to the same old chords
F
You would complain that I was never around

Chorus

     Im still lost and running, i cant get enough

e|----3-----------------8-------------8----8-------|-------3----------|
B|----5----------------10------------11---10-------|-------5----------|
G|----5----------------10------------10---10-------|-------5----------|
D|----5----------------10------------10---10-------|-------5----------|
A|----3-----------------8-------------8----8-------|-------5----------|
E|----3-----------------8-------------8----8-------|-------5----------|

(This version of the chorus sounds god on a nylon guitar)

e|----0-----------------1-------------3----1-------|-------0----------|
B|----1-----------------1-------------1----1-------|-------1----------|
G|----0-----------------2-------------2----2-------|-------0----------|
D|----2-----------------3-------------3----3-------|-------2----------|
A|----3--------------------------------------------|-------3----------|
E|-------------------------------------------------|------------------|

After 1st Chorus: I get it to something like this. 
(experiment yourself to find the best)

e|--3-----3-----3-----3---------------------|
B|--1------1----1-------1-------------------|
G|--0--0------0-2--2-----2------------------|
D|--2-----------3---------3-----------------|
A|--3---------------------------------------|
E|------------------------------------------|

After 2nd chorus:

e|--1---3--1----3---5--3-------|
B|--1---1--1----3---3--3-------|
G|--2---2--2----4---4--4-------|
D|--3---3--3----5---5--5-------|
A|--4-----------5--------------|
E|--5-----------3--------------|
            

comments powered by Disqus
↑ Back to top | Powderfinger Chords for Lost And Running. Lyrics for acoustic guitar and electric guitar. Tablatures and chords are parodies/interpretations of the original songs. You may use it for private study, scholarship, research or language learning purposes only