» » »

Lost And Running Tabs (ver.2)

Artists:  A B C D E F G H I J K L M N O P Q R S T U V W X Y Z # 

Lost And Running Tabs (ver.2)

Powderfinger
Rating:
5/5 (10 votes)

Hard to play? Try these video lessons and learn fast.
                Hey its trav_555 again bringing you the new powderfinger song lost and running. remember 
members.

h - hammer on
      p - pull off
      b - bend string up
      r - release bend
      / - slide up
      \ - slide down
      ~ - vibrato
      t - tap (with strumming hand)
      x - muted, struck string
     < > - harmonic

INTRO:
E-|----0---------------------------------3------|
B-|------1----1h3p1------------1---1-------1----|
G-|-----------------0------0h2---2---2-------2--|
D-|--------2-----------0-3-------------3--------|(x 2)
A-|-3-------------------------------------------|
E-|---------------------------------------------|

1ST VERSE:
    C   F   C   F
E-|-0-------0------|
B-|-1---1---1---1--|
G-|-2---2---2---2--|
D-|-0---3---0---3--|
A-|-3---3---3---3--|
E-|----------------|

E-|----0---------------------------------3------|
B-|------1----1h3p1------------1---1-------1----|
G-|-----------------0------0h2---2---2-------2--|
D-|--------2-----------0-3-------------3--------|(x 2)
A-|-3-------------------------------------------|
E-|---------------------------------------------|

CHORUS CHORDS:
    C                       F
E-|-------------------------------------------------------------------------|
B-|-5-5-5-5-5-5-5-5-5-5-5-5-10-10-10-10-10-10-10-10-11-11-11-11-11-11-10-10-|
G-|-5-5-5-5-5-5-5-5-5-5-5-5-10-10-10-10-10-10-10-10-10-10-10-10-10-10-10-10-|
D-|-5-5-5-5-5-5-5-5-5-5-5-5-10-10-10-10-10-10-10-10-10-10-10-10-10-10-10-10-|(x2)
A-|-3-3-3-3-3-3-3-3-3-3-3-3-8--8--8--8--8--8--8--8--8--8--8--8--8--8--8--8--|
E-|-------------------------------------------------------------------------|

    F
E-|--------------------------1----1----1---1--|
B-|-10h11--10h11--10h11-10---1h3--1h3--1h3-1--|
G-|-10-----10-----10----10--------------------|
D-|-10----------------------------------------|
A-|-8-----------------------------------------|
E-|-------------------------------------------|

LEAD BREAK:
E-|---------------------------------------------------------------------|
B-|-/5~~-/8~~-/10~~-/13~-/15~~-15/17~~--17\15-15/17\13~~---5\3--3/5\1~~-|
G-|---------------------------------------------------------------------|
D-|---------------------------------------------------------------------|
A-|---------------------------------------------------------------------|
E-|---------------------------------------------------------------------|

2ND VERSE:
    C   F   C   F
E-|-0-------0------|
B-|-1---1---1---1--|
G-|-2---2---2---2--|
D-|-0---3---0---3--|
A-|-3---3---3---3--|
E-|----------------|

E-|----0---------------------------------3------|
B-|------1----1h3p1------------1---1-------1----|
G-|-----------------0------0h2---2---2-------2--|
D-|--------2-----------0-3-------------3--------|(x 2)
A-|-3-------------------------------------------|
E-|---------------------------------------------|

CHORUS CHORDS:
    C                       F
E-|-------------------------------------------------------------------------|
B-|-5-5-5-5-5-5-5-5-5-5-5-5-10-10-10-10-10-10-10-10-11-11-11-11-11-11-10-10-|
G-|-5-5-5-5-5-5-5-5-5-5-5-5-10-10-10-10-10-10-10-10-10-10-10-10-10-10-10-10-|
D-|-5-5-5-5-5-5-5-5-5-5-5-5-10-10-10-10-10-10-10-10-10-10-10-10-10-10-10-10-|(x4)
A-|-3-3-3-3-3-3-3-3-3-3-3-3-8--8--8--8--8--8--8--8--8--8--8--8--8--8--8--8--|
E-|-------------------------------------------------------------------------|

E-|-----1-----3-----1--------3-----5-----3--|
B-|---------1-----1--------------3-----3----|
G-|-----------------------------------------|
D-|-2\3-----------------3/5-----------------|
A-|-----------------------------------------|
E-|-----------------------------------------|

E-|-----1-----3-----1--------3-----5-----7--|
B-|---------1-----1--------------3-----3----|
G-|-----------------------------------------|
D-|-2\3-----------------3/5-----------------|
A-|-----------------------------------------|
E-|-----------------------------------------|

    C                       F
E-|-------------------------------------------------------------------------|
B-|-5-5-5-5-5-5-5-5-5-5-5-5-10-10-10-10-10-10-10-10-11-11-11-11-11-11-10-10-|
G-|-5-5-5-5-5-5-5-5-5-5-5-5-10-10-10-10-10-10-10-10-10-10-10-10-10-10-10-10-|
D-|-5-5-5-5-5-5-5-5-5-5-5-5-10-10-10-10-10-10-10-10-10-10-10-10-10-10-10-10-|
A-|-3-3-3-3-3-3-3-3-3-3-3-3-8--8--8--8--8--8--8--8--8--8--8--8--8--8--8--8--|
E-|-------------------------------------------------------------------------|
                                                                        (Repeat till end)
            
Hard to play? Try these video lessons and learn fast. | Correct




comments powered by Disqus
↑ Back to top | Tablatures and chords are parodies/interpretations of the original songs. You may use it for private study, scholarship, research or language learning purposes only