» » »

Lost And Running Bass tabs (ver.1)

Artists:  A B C D E F G H I J K L M N O P Q R S T U V W X Y Z # 

Lost And Running Bass tabs (ver.1)

Powderfinger
Rating:
5/5 (1 vote)

Hard to play? Try these video lessons and learn fast.
                -------------------------------------------------------------------------------
-------------------------------------------------------------------------------


Tuning: Standard Tunning

The bass uses pretty much the same bassline throughout the whole song, but it varies each time. 
Please correct me where I am wrong by leaving a comment and I will correct asap :)
Here we go...

Also note: 
The beat goes as so... 
|1-2-3-4|1-2|1-2-3-4|1-2-3-4|1-2-3-4|1-2|1-2-3-4|1-2-3-4| and so on throughout the song... 
the only bits where the timing changes to a normal 4/4 timing is in the Pre-Break and Bridge...


Intro:


...starts off with guitar intro...
...bass comes in after the first guitar riff sequence...


G|--------------------------------|		[No Singing....]
D|--------------3-3-3--3-3333555--|
A|--3-3-3--3--36-----63-----------|
E|-------53--5--------------------|


Verse 1:

G|--------------------------------|		"Oh I was sick and tired of waiting lost...."
D|--------------3-3-3--3--3-353---|
A|--3-3-3--3--36-----63--6-6---6--|
E|-------53--5--------------------|

G|--------------------------------|
D|--------------3-3-3--3-3333555--|
A|--3-3-3--3--36-----63-----------|
E|-------53--5--------------------|


G|------------------------3------3---|		"And we shouldn't hope...."
D|--------------3-3-3--3h5-53-3h5-5--|
A|--3-3-3--3--36-----63------6-------|
E|-------53--5-----------------------|

G|--------------------------------|
D|--------------3-3-3--3-33-3-3---|
A|--3-3-3--3--36-----63----6-6-6--|
E|-------53--5--------------------|


Chorus:

G|--------------------------------|		"Oh I'm still lost and running...."
D|--------------3-3-3--3-33-3-----|
A|--3-3-3--3--36-----63------636--|
E|-------53--5--------------------|

G|------------------------3-------|
D|--------------3-3-3--3-5-5-3-3--|
A|--3-3-3--3--36-----63-------6---|
E|-------53--5--------------------|


Pre-Break:

G|------------------------------------|
D|------------------------------------|
A|------------------------------------|
E|--1---------------1-----------------|		[4/4 Timing]


Break:

G|--------------------------------|
D|--------------3-3-3--3-3333555--|
A|--3-3-3--3--36-----63-----------|		x2
E|-------53--5--------------------|		[Back to normal timing]


Verse 2:

G|--------------------------------|		"Oh every day moves like a hurricane...."
D|--------------3-3-3--3-3333555--|
A|--3-3-3--3--36-----63-----------|
E|-------53--5--------------------|

G|------------------------3------3---|
D|--------------3-3-3--3h5-53-3h5-5--|
A|--3-3-3--3--36-----63------6-------|
E|-------53--5-----------------------|


G|--------------------------------|		"And it comes around...."
D|--------------3-3-3--3-3333555--|
A|--3-3-3--3--36-----63-----------|
E|-------53--5--------------------|

G|--------------------------3-55--|
D|--------------3-3-3--3-334-5----|
A|--3-3-3--3--36-----63-----------|
E|-------53--5--------------------|


Chorus:

G|--------------------------------|		"Oh I'm still lost and running...."
D|--------------3-3-3--3-33-3-----|
A|--3-3-3--3--36-----63------636--|
E|-------53--5--------------------|

G|--------------------------------|
D|--------------3-3-3--3-33-3-----|
A|--3-3-3--3--36-----63------636--|
E|-------53--5--------------------|

G|--------------------------3------|
D|--------------3-3-3--3-3h5-53-3--|
A|--3-3-3--3--36-----63--------6---|
E|-------53--5---------------------|

G|------------------------33-5h3---|
D|--------------3-3-3--3h5--5---5--|
A|--3-3-3--3--36-----63------------|
E|-------53--5---------------------|


Bridge:

G|--------------------------------5---|
D|--3---------------5------------7-7--|
A|------------------------------------|
E|------------------------------------|		[4/4 timing]

G|------------------------------------|
D|--3---------------5555555555555555--|
A|------------------------------------|
E|------------------------------------|


Verse 3:

G|--------------------------------|		"I'm taking my time I let it float away...."
D|--------------------------------|
A|--3-3-3--3-33-------------------|
E|-------63----31-1-1101-11-1333--|		[Back to normal timing]

G|--------------------------------|
D|--------------------------------|
A|--3-3-3--3-33-------------------|
E|-------63----31-1-1101-1130405--|


Chorus:

G|--------------------------------|		"Oh I'm still lost and running...."
D|--------------3-3-3--3-33-3-----|
A|--3-3-3--3--36-----63------636--|		x4
E|-------63--5--------------------|


G|-------------------------2-233--|		"Well the harder we look...."
D|--------------3-3-33-3535-5-----|
A|--3-3-3--3--36------------------|
E|-------63--5--------------------|

G|------------------------7107-------7107----|
D|--10-10-107-10-1010---10----10---10----10--|
A|--------------------8---------8-8----------|
E|-------------------------------------------|


Outro:


...sound fades out...

G|------------------------3-3-----|
D|--------------3-3-3--3h5-5--53--|
A|--3-3-3--3--36-----63-----------|		x2
E|-------53--5--------------------|







| /  slide up
| \  slide down
| h  hammer-on
| p  pull-off
| ~  vibrato
| +  harmonic
| x  Mute note
===============================================================================

SONG LAYOUT


Intro
No Singing

Verse 1
"Oh I was sick and tired of waiting lost...."

Chorus
"Oh I'm still lost and running...."

Pre-Break
No Singing

Break
No Singing

Verse 2
"Oh every day moves like a hurricane...."

Chorus
"Oh I'm still lost and running...."

Bridge
No Singing

Verse 3
"I'm taking my time I let it float away...."

Chorus
"Oh I'm still lost and running...."

Outro
"You can't lay there in my arms...."





Note: 
The timing may not be perfect when you sight read off this tab, but use the music to help you. 
This tab should give you all the notes, you just gotta put them in the right 
timing and it should sound good :)
Correct me where ever you can.
Comments and Ratings are much apprectiated.

Thanks and Good Luck!
            
Hard to play? Try these video lessons and learn fast. | Correct




comments powered by Disqus
↑ Back to top | Tablatures and chords are parodies/interpretations of the original songs. You may use it for private study, scholarship, research or language learning purposes only