» » »

Powderfinger, Like A Dog Tabs (ver.2)

Artists:  A B C D E F G H I J K L M N O P Q R S T U V W X Y Z # 

Like A Dog Tabs (ver.2)

Powderfinger Tabs
 Rating:
4/5 (4 votes)
Like A Dog lessons Tabs too difficult? Try these video lessons and learn fast
                Like A Dog


KEY
7h9             - hammer
7p9             - pull off
11b12           - 11 bend to 12
11b12b11        - 11 bend to 12 and back to 11
/               - slide up
\               - slide down
<12>            - harmonic
|---|           - a bar
 ~              - vibrato
 X              - block

This song is tuned half a step down to
Eb Ab Db Gb Bb Eb


VERSE (0:29) repeat all this 6 times
e----------------------------------------------
b--------------<12>-<12>-<12>------------------
G----------------------------------------------
D--------6------------------------6------------
A--7-7-7---7-7----------------7-7---7-7-7-6----
E----------------------------------------------

e----------------------------------------------
b----------------------------------------------
G---------------7-7-7--------------------------
D--------4----------------4--------------------
A--5-5-5---5-5--------5-5---5-5-5-6------------
E----------------------------------------------

PRE-CHORUS (1:15)
e--12~~~~~~---10~~~~~~~~---10-----12-~~~~~~~--12b14--12b14b12--10~~~
b------------------------------12-----------------------------------
G-------------------------------------------------------------------
D-------------------------------------------------------------------
A-------------------------------------------------------------------
E-------------------------------------------------------------------

CHORUS (1:31)
e----------------------------------
b----------------------------------
G----------------------------------
D--------------------5--5-6-7------8 times
A-----------5--6--7----------------
E--5---5-8-------------------------

"But its a fine, fine..."
e----------------------------------------------
b----------------------------------------------
G----------------------------------------------
D--4-4-4-4-4-4-4-4--7-7-7-7-7-7-7-7------------
A--4-4-4-4-4-4-4-4--7-7-7-7-7-7-7-7------------
E--2-2-2-2-2-2-2-2--5-5-5-5-5-5-5-5------------




Verse again

repeat Pre-chorus

repeat Chorus

At the end the bass just plays the chorus
            
Submit corrections

comments powered by Disqus
↑ Back to top | Powderfinger Tabs for Like A Dog. Lyrics for acoustic guitar and electric guitar. Tablatures and chords are parodies/interpretations of the original songs. You may use it for private study, scholarship, research or language learning purposes only