» » »

Powderfinger, Like A Dog Bass tabs (ver.1)

Artists:  A B C D E F G H I J K L M N O P Q R S T U V W X Y Z # 

Like A Dog Bass tabs (ver.1)

Powderfinger Tabs
Rating:
2/5 (1 vote)
Like A Dog lessons Tabs too difficult? Try these video lessons and learn fast
                -------------------------------------------------------------------------------
-------------------------------------------------------------------------------


last time i transcribed this i didn't have an amp so it was very in accurate, now it is 
and is sounding good with a warm tone.

Tuning: standard

Verse:
G|---------------------------------------------------------------------------|
D|---------------------------------------------------------------------------|
A|-6-6-------8\4-4-------3/6-6-------8\4-4-------4-4--6-6-------8\4-4--------|
E|----------------------------------------------4-4--------------------------|

G|---------------------------------------------------------------------------|
D|---------------------------------------------------------------------------|
A|--4-4--6-6-----8\4-4------4-4--6-6-----8\4-4-------------------------------|
E|-4-4---------------------4-4-----------------------------------------------|

Bridge 1 :
G|---------------------------------------------------------------------------|
D|---------------------------------------------------------------------------|
A|---------------------------------------------------------------------------|
E|---------------------------------------------------------------------------|

Chorus:
G|---------------------------------------------------------------------------|
D|--------------------4-4-5--6----------------------------4-4-5--6-----------|x3
A|-----------4--5--6----------------------------4--5--6----------------------|
E|-4---4--7---------------------------4---4--7-------------------------------|

Bridge 2 :
G|---------------------------------------------------------------------------|
D|---------------------------------------------------------------------------|
A|--1--1--1--1--1--1--1--1--4--4--4--4--4--4--4--4---------------------------|
E|---------------------------------------------------------------------------|

Verse 2 :
G|---------------------------------------------------------------------------|
D|---------------------------------------------------------------------------|
A|-6-6-6-6-6-6-6-6-6-6-6-6-6-6-4-4\-------3/6-6-----8\4-4--------------------|
E|---------------------------------------------------------------------------|

G|---------------------------------------------------------------------------|
D|---------------------------------------------------------------------------|
E|---4-4-6-6-----8\4-4--------4-4-6-6-----8\4-4----------4-4-6-6-----7\3-3---|
A|--4-4----------------------4-4------------------------4-4------------------|

Bridge 1 :
G|---------------------------------------------------------------------------|
D|---------------------------------------------------------------------------|
A|---------------------------------------------------------------------------|
E|---------------------------------------------------------------------------|

Chorus:
G|---------------------------------------------------------------------------|
D|-------------------4-4-5--6---------------------------4-4-5--6-------------|x3
A|-----------4--5--6----------------------------4--5--6----------------------|
E|-4---4--7---------------------------4---4--7-------------------------------|

Outro:
G|---------------------------------------------------------------------------|
D|-------------------4-4-5--6---------------------------4-4-5--6-------------|x4
A|-----------4--5--6----------------------------4--5--6----------------------|
E|-4---4--7---------------------------4---4--7-------------------------------|

G|------------------------------------------------------------------------------|
D|------------------------------------------------------------------------------|
A|------------------------------------------------------------------------------|
E|-4\---------------------------------------------------------------------------|


| /  slide up
| \  slide down
| h  hammer-on
| p  pull-off
| ~  vibrato
| +  harmonic
| x  Mute note
===============================================================================
            

comments powered by Disqus
↑ Back to top | Powderfinger Bass for Like A Dog. Lyrics for acoustic guitar and electric guitar. Tablatures and chords are parodies/interpretations of the original songs. You may use it for private study, scholarship, research or language learning purposes only