» » »

Ive Got You On My Mind Tabs (ver.1)

Artists:  A B C D E F G H I J K L M N O P Q R S T U V W X Y Z # 

Ive Got You On My Mind Tabs (ver.1)

Powderfinger
Rating:
4/5 (4 votes)

Hard to play? Try these video lessons and learn fast.
                ////= Slide down
b   = bend

Intro
Both Guitars:
                         X4
E|-------------------------|
B|-------------------------|
G|-------------------------|
D|-8---8---8---8---8////---|
A|-8---8---8---8---8////---|
E|-6---6---6---6---6////---|

  
Riff 1 
                                                    X4
E|----------------------------------------------------|
B|----------------------------------------------------|
G|----------------------------------------------------|
D|-8---8---8---8---8---8---6---6---6---13--13--13--13-|
A|-8---8---8---8---8---8---6---6---6---13--13--13--13-|
E|-6---6---6---6---6---6---4---4---4---11--11--11--11-|


Riff 2
                     X2                    X2
E|---------------------|---------------------|
B|---------------------|---------------------|
G|---------------------|-8----8----8----8----|
D|-8----8----8----8----|-8----8----8----8----|
A|-8----8----8----8----|-6----6----6----6----|
E|-6----6----6----6----|---------------------|


Pre-Chorus

E|---------------------|
B|---------------------|
G|-10----8----6--------|
D|-10----8----6----3---|
A|-8-----6----4----3---|
E|-----------------1---|


1st Guitar: Play Riff 1 Twice

2nd Guitar (with slight reverb):
E|---------------------------------|
B|-8-8-8-8-8-8-8-8-8-8-8-8-8-8-8-8-|
G|-8-8-8-8-8-8-8-8-8-8-8-8-8-8-8-8-|
D|---------------------------------|
A|---------------------------------|
E|---------------------------------|



E|---------------------------------|
B|-6-6-6-6-6-6-6-6-6-6-6-6-6-6-6-6-|
G|-6-6-6-6-6-6-6-6-6-6-6-6-6-6-6-6-|
D|---------------------------------|
A|---------------------------------|
E|---------------------------------|


E|-6-6-6-6-6-6-6-6-9-9-9-9-9-9-9-9-|
B|-6-6-6-6-6-6-6-6-9-9-9-9-9-9-9-9-|
G|---------------------------------|
D|---------------------------------|
A|---------------------------------|
E|---------------------------------|


E|---------------------------------|
B|-8b---6---6-8-6-8---8-8-8-8-8-8--|
G|-8b---6-8-6-8-6-8---8-8-8-8-8-8--|
D|--------8------------------------|
A|---------------------------------|
E|---------------------------------|


Both Guitars: Repeat Riff 1

Repeat Riff 2

Repeat Pre-Chorus then finish with:

E|---------------------------------|
B|---------------------------------|
G|---------------------------------|
D|-8-------------------------------|
A|-8-------------------------------|
E|-6-------------------------------|


Repeat Intro



Guitar 1 Repeat Riff 1 until end



Guitar 2:
                                                      X4
E|-6-6-6-6-6-6-6-6-6-6-6-6-6-4-4-4-4-4-4-4-3-3-3-3-3-3-3|
B|-6-6-6-6-6-6-6-6-6-6-6-6-6-4-4-4-4-4-4-4-4-4-4-4-4-4-4|
G|------------------------------------------------------|
D|------------------------------------------------------|
A|------------------------------------------------------|
E|------------------------------------------------------|


                                     X4
E|-------------------------------------|
B|---------------------------8b-----8b-|
G|-8-6-----8-6-------------6-8b---8-8b-|
D|-----8-------8---6-------------------|
A|-------------------------------------|
E|-------------------------------------|


Both Guitars:
E|---------------------------------|
B|---------------------------------|
G|---------------------------------|
D|-8-------------------------------|
A|-8-------------------------------|
E|-6-------------------------------|
            
Hard to play? Try these video lessons and learn fast. | Correct




comments powered by Disqus
↑ Back to top | Tablatures and chords are parodies/interpretations of the original songs. You may use it for private study, scholarship, research or language learning purposes only