» » »

Good Day Ray Tabs (ver.1)

Artists:  A B C D E F G H I J K L M N O P Q R S T U V W X Y Z # 

Good Day Ray Tabs (ver.1)

Powderfinger
Rating:
0/5 (0 votes)

Hard to play? Try these video lessons and learn fast.
                Powderfinger - 
Album - Internationalist
  
 
INTRO:  
(keyboard - Darren) 
E-|--------------------------------|- 
B-|--------------------------------|- 
G-|--------------------------------|- 
D-|-12--12--12--12--12--12--12--12-|-(pluck with fingers) 
A-|--------------------------------|- 
E-|-10--10--10--10--10--10--10--10-|- 
 
(guitar 1 - Bernie) 
E-|------------------------------------------|- 
B-|------------------------------------------|- 
G-|---------------------10-----------------8-|- 
D-|-12--12--12--12--12--10-----------------8-|- 
A-|-12--12--12--12--12--8------------------6-|- 
E-|-10--10--10--10--10------6--6--6--7--8----|- 
 
(guitar 2 - Ian) 
E-|-------------------------------------------|- 
B-|-------------------------------------------|- 
G-|---------------------10------------------8-|- 
D-|-12--12--12--12--12--10--8--8--8--9--10--8-|- 
A-|-12--12--12--12--12--8---8--8--8--9--10--6-|- 
E-|-10--10--10--10--10------6--6--6--7--8-----|- 
 
VERSE: 
(guitar 1 - Bernie) 
E-|-----------------------|- 
B-|---------------------0-|- 
G-|---------------------0-|- 
D-|-12--12--12--12--12--0-|- 
A-|-12--12--12--12--12----|- 
E-|-10--10--10--10--10----|- 
 
(guitar 2 - Ian) 
E-|------------------------|- 
B-|------------------------|- 
G-|---------------------12-|- 
D-|-12--12--12--12--12--12-|- 
A-|-12--12--12--12--12--10-|- 
E-|-10--10--10--10--10-----|- 
 
CHORUS: 
(guuitar 1 & 2) 
E-|----------------------------------------------------|- 
B-|----------------------------------------------------|- 
G-|------------------8-8-8-8-8-8-8-8--5-5-5-5----------|- 
D-|-5-5-5-5-5-5-5-5--8-8-8-8-8-8-8-8--5-5-5-5--3-3-3-3-|-(x 2) 
A-|-5-5-5-5-5-5-5-5--6-6-6-6-6-6-6-6--3-3-3-3--3-3-3-3-|- 
E-|-3-3-3-3-3-3-3-3----------------------------1-1-1-1-|- 
 
That's basically all the progressions in the song, although Darren 
plays some keyboard part similar to this for a break/bridge. 
 
E-|-----------------------------------------------------|- 
B-|-----------------------------------------------------|- 
G-|-----------------------------------------------------|- 
D-|-----------------------------------------------------|- 
A-|-----------------------------------------------------|- 
E-|-10--10--10--10--10--10-etc--9-9--8-8--7-7--6-6--5-5-|- 
 
OUTRO: 
(guitar 1 - Bernie) 
E-|-------------|- 
B-|-------------|- 
G-|-7-7-7-7-7---|- 
D-|-7-7-7-7-7-5-|- 
A-|-5-5-5-5-5-5-|- 
E-|-----------3-|- 
 
(guitar 2 - Ian) 
E-|------------------------|- 
B-|------------------------|- 
G-|---------------------12-|- 
D-|-12--12--12--12--12--12-|- 
A-|-12--12--12--12--12--10-|- 
E-|-10--10--10--10--10-----|- 
 
            
Hard to play? Try these video lessons and learn fast. | Correct




comments powered by Disqus
↑ Back to top | Tablatures and chords are parodies/interpretations of the original songs. You may use it for private study, scholarship, research or language learning purposes only