» » »

Fathers’ Pyramid Tabs (ver.1)

Artists:  A B C D E F G H I J K L M N O P Q R S T U V W X Y Z # 

Fathers’ Pyramid Tabs (ver.1)

Powderfinger
Rating:
0/5 (0 votes)

Hard to play? Try these video lessons and learn fast.
                 
Powderfinger - Father's Pyramid
Album - Parables for Wooden Ears

 
Drop D tuning! 
 
INTRO: 
E-|--------------|---------|- 
B-|--------------|---------|- 
G-|-7/9\7\5--7/9-|---------|- 
D-|--------------|-5--3--0-|-(x 4) 
A-|--------------|-3--1--0-|- 
D-|--------------|-------0-|- 
 
VERSE: 
E-|---------|---------|-----------|---------|---------|---------|-----------|- 
B-|---------|---------|---------3-|---------|---------|---------|-----------|- 
G-|---------|---------|---------2-|---------|---------|---------|---5---3---|- 
D-|-5--3--0-|-5--3--0-|-5--3--0-0-|-5--3--0-|-5--3--0-|-5--3--0-|--5--3---0-|- 
A-|-3--1--0-|-3--1--0-|-3--1--0---|-3--1--0-|-3--1--0-|-3--1--0-|-3--1----0-|- 
D-|-------0-|-------0-|-------0---|-------0-|-------0-|-------0-|---------0-|- 
 
PRE CHORUS: 
E-|-(0h2p0)----------------------------|- 
B-|-3------3----3--3-----6--6-----5--5-|- 
G-|-2------2----2--2-----5--5-----4--4-|- 
D-|-0------0----0--0-----3--3-----2--2-|-(x 4) 
A-|-0------0----3--3-----3--3-----2--2-|-(brackets stuff 1st time only) 
D-|-0------0---x0--0---x-3--3---x-2--2-|- 
 
CHORUS: 
E-|-----------------------------------------------|- 
B-|-----------------------------------------------|- 
G-|-7/9-9-9--9/10-10-10--10/12-12-12--12/14-14-14-|- 
D-|-----------------------------------------------|-(x 4) 
A-|-5/7-7-7--7/8--8--8----8/10-10-10--10/12-12-12-|- 
D-|-----------------------------------------------|- 
 
BRIDGE: 
E-|---------------------------|- 
B-|---------------------------|- 
G-|---------------------------|- 
D-|-----3h5--3p0------0---0-1-|- 
A-|-3h5----------0h3--0---0-1-|- 
D-|-------------------0---0-1-|- 
 
SOLO: 
E-|-------------------------------------12/13\12\10---8/10-|- 
B-|--------------------------------------------------------|- 
G-|--------------------------------------------------------|- 
D-|-3h5-5/7-7b(8)r7---7\5p3p0------------------------------|- 
A-|---------------------------5b(6)r5----------------------|- 
D-|--------------------------------------------------------|- 
 
BASS PART AFTER SOLO: 
G-|------------------------|- 
D-|-----3h5--3p0------0----|- 
A-|-3h5----------0h3-------|- 
D-|----------------------3-|- 
 
The rest of the song is basically repeats of the above. Enjoy :) 
 
            
Hard to play? Try these video lessons and learn fast. | Correct




comments powered by Disqus
↑ Back to top | Tablatures and chords are parodies/interpretations of the original songs. You may use it for private study, scholarship, research or language learning purposes only