>
 >
Capocity

Capocity Guitar Tabs

Powderfinger - Capocity chords, tabs, tablatures, lyrics

Guitar lessons | Add/correct | Request | Top 50 tabs Artists:  A B C D E F G H I J K L M N O P Q R S T U V W X Y Z 0-9

Capocity Guitar Tabs – Powderfinger

CD, Sheet music, Poster

Do you like Capocity? Share with your friends now
Tabs
capo on first fret.

chords;
    E  Asus2  C  B
e-|-0----0----0--0----|
B-|-0----0----1--4----|
G-|-1----2----0--4----|
D-|-2----2----2--4----|
A-|-2----0----3--2----|
E-|-0-----------------|
 
intro;

E,Asus2,E,Asus2

verse;
E      Asus2            E             Asus2                 
honesty is out of style, so hammer in the coffin nails
E         Asus2               E            Asus2
a letter sent across to land, with kissers for you

chorus thing;
C               Asus2    C          Asus2
we'll tell them nothing, our little secret
C             Asus2    C         B
they'll never make us, ever open up

at this point a little fill by guitar 2 comes in and goes over the verse

E,Asus2,E,Asus2

verse;
E         Asus2                E     Asus2   
tradition in and out the door, family our fatal flaw
E        Asus2            E ,            Asus2
a future frameless in design, a seamless concept

chorus;
C               Asus2    C          Asus2
we'll tell then nothing, our little secret
C             Asus2   C         B
they'll never make us ever open up
C               B
never break our trust
C                  B
until we're coffin dust

stop then...

solo
well here it is but as i said at the start it's very approxamate so if you have
corrections e-mail me.....p.s the notes in brackets are played really softly.....


|----------------------------------------------------------------------|
|---16p14---------9h11-------------------------------------------------|
|-----------------------------14--12-----10---------10----8-----5------|
|----------------------------------------------------------------------|
|----------------------------------------------------------------------|
|----------------------------------------------------------------------|

|----------------------------------------------------------------------|
|---16p14---------9h11-------16--18--16--13---(10)-----8brbr~~~~~~-----|
|----------------------------------------------------------------------|
|----------------------------------------------------------------------|
|----------------------------------------------------------------------|
|----------------------------------------------------------------------|

|----------------------------------------------------------------------|
|---14~---11--13-----------------------------------11---13-------------|
|--------------------------10----13----10----13----------------12---13-|
|----------------------------------------------------------------------|
|----------------------------------------------------------------------|
|----------------------------------------------------------------------|

|----------------------------------------------------------------------|
|------------------------------11----13--13-13-13--15b~~---------------|
|-10-----13-----10------13---------------------------------------------|
|----------------------------------------------------------------------|
|----------------------------------------------------------------------|
|----------------------------------------------------------------------|

|------------------------------------------------|
|------------------------------11-----------16~~-|
|-10-----13-----10------13-----------------------|
|------------------------------------------------|
|------------------------------------------------|
|------------------------------------------------|


straight after that there is this fill (this is also played under the solo)

       E                C                  B
|------------------------------------------------------------2---------|
|-------------0--------------1-----------------4-----------------4-----|
|----------------1--------------0------------4---4-------------4---4---|
|---------2---------------2----------------4---------------------------|
|-------2---------------3----------------------------------------------|
|----------------------------------------------------------------------|

but im really not sure about that riff so for the time being just strum E,C
and B under the words

E         C       B            E        C      B
when this feeling fades, 
      E        C      B       E      C       B
it'll all seem like a waste


breakdown;
piano arranged for guitar (i think its right, again e-mail me)

e-|----5-5--4-2-2~~~---------5-5--4-2-2~~~--|

the occasinal strumings are just straming Asus2,

then the outro

outro;
E       Asus2                  E          Asus2         
fragile bond has shaken loose, the secret love a shrinking noose
E         Asus2          E         Asus2
sufficated on the truth, left with nothing
E       Asus2                  E          Asus2
fragile bond has shaken loose, the secret love a shrinking noose
E         Asus2          E         Asus2
sufficated on the truth, left with nothing
E         Asus2
left with nothing 
E         Asus2
left with nothing.......

finish on E





Comments


Popular Powderfinger tabs & chords
Bless My Soul Bass Tabs
Long Way To Go Chords
Up And Down And Back Again Chords
Wishing On The Same Moon 1 Chords
A Song Called Everything 2 Tabs
Pick You Up Intro Tabs
Roll Right By You Tabs
Waiting For The Sun Tabs
A Song Called Everything Ukulele
Already Gone Ukulele


Song lyrics



↑ Back to top | Tablatures and chords are parodies/interpretations of the original songs. You may use it for private study, scholarship, research or language learning purposes only
© 2014 AZChords.com Contact us | Privacy policy | DMCA | Add/correct tabs | Request tabs | Top 50 tabs