» » »

Powderfinger, Belter Tabs (ver.1)

Artists:  A B C D E F G H I J K L M N O P Q R S T U V W X Y Z # 

Belter Tabs (ver.1)

Powderfinger Tabs
 Rating:
4.2/5 (5 votes)
Belter lessons Tabs too difficult? Try these video lessons and learn fast
                ----------------------------------------------------------------------------
Tuning:EADGBe

Intro
e|---13--13---12--12---11--11----------|
B|----------------------------11--11---|
G|-------------------------------------|
D|-------------------------------------|
A|-------------------------------------|
E|-------------------------------------|

Main Riff
e|---------------|listen to song for timing
B|---------------|
G|-(8/9)-8/9-x4--|()-dont play 1st time
D|-(8/9)-8/9-----|
A|-(6/7)-6/8-----|
E|-(0--)-0-------|

Pre chorus
e|-----------------------------------|
B|-----------------------------------|
G|--6-6-6-6-6-6-6-7-7-7-7-7-7-7-7----|
D|--6-6-6-6-6-6-6-7-7-7-7-7-7-7-7----|
A|--4-4-4-4-4-4-4-5-5-5-5-5-5-5-5----|
E|-----------------------------------|


Chorus
e|------0---0-0-0----|-0-0--0---0-0-0-----|
B|------2h3-3-3-3p2p0|-2-2--2h3-3-3-3p2p0-|
G|-3--3--------------|-2-2----------------|
D|-4--4--------------|-2-2----------------|
A|-4--4--------------|-0-0----------------|
E|-2--2--------------|--------------------|

e|-0-0--0---0-0-0-----|-0-0--0---0-0-0-------|
B|-0-0--2h3-3-3-3p2p0-|-0-0--2h3-3-3-3p2p0---|
G|-1-1----------------|-1-1------------------|
D|-2-2----------------|-2-2------------------|
A|-2-2----------------|-2-2------------------|
E|-0-0----------------|-0-0------------------|

e|-----------------|-----------------|---------------------------------|
B|-----------------|-----------------|---------------------------------|
G|-6-6-6-6-6-6-6-6-|-7-7-7-7-7-7-7-7-|---------------------------------|
D|-6-6-6-6-6-6-6-6-|-7-7-7-7-7-7-7-7-|-7-7-7-7-7-7-7-7--7-7-7-7-7-7-7-7|
A|-4-4-4-4-4-4-4-4-|-5-5-5-5-5-5-5-5-|-7-7-7-7-7-7-7-7--7-7-7-7-7-7-7-7|
E|-----------------|-----------------|-5-5-5-5-5-5-5-5--5-5-5-5-5-5-5-5|

e|-----------------|-----------------|----------------------------------|
B|-----------------|-----------------|------------------9-9-9-9-9-9-9-9-|
G|-6-6-6-6-6-6-6-6-|-7-7-7-7-7-7-7-7-|------------------9-9-9-9-9-9-9-9-|
D|-6-6-6-6-6-6-6-6-|-7-7-7-7-7-7-7-7-|-7-7-7-7-7-7-7-7--7-7-7-7-7-7-7-7-|
A|-4-4-4-4-4-4-4-4-|-5-5-5-5-5-5-5-5-|-7-7-7-7-7-7-7-7------------------|
E|-----------------|-----------------|-5-5-5-5-5-5-5-5------------------|

listen to song for timing etc
Still working on solo, will add later

| /  slide up
|   slide down
| h  hammer-on
| p  pull-off
============================================================================
            
Submit corrections

comments powered by Disqus
↑ Back to top | Powderfinger Tabs for Belter. Lyrics for acoustic guitar and electric guitar. Tablatures and chords are parodies/interpretations of the original songs. You may use it for private study, scholarship, research or language learning purposes only