» » »

Posies, Solar Sister Bass tabs (ver.1)

Artists:  A B C D E F G H I J K L M N O P Q R S T U V W X Y Z # 

Solar Sister Bass tabs (ver.1)

Posies Tabs
 Rating:
4/5 (4 votes)
Solar Sister lessons Tabs too difficult? Try these video lessons and learn fast
                The Posies - Solar Sister



Verse
G|------------------------------------------------------|
D|-5*-4-5*-3--------3*---3-4-5-5*-4-5*-3--------3*---3-4|
A|-----------5-3-1*----5-----------------5-3-1*----5----|
E|------------------------------------------------------|

----------2-3-2---------------------------------------|
-5-5*-4-5-------5-3----3*---3-4-5-5*-4-5*-3--------3*-|
--------------------1*----5-----------------5-3-1*----|
------------------------------------------------------|


Bridge
G|------------|
D|-3*-6*-7*---|
A|------------|
E|------------|

Verse
G|--------------------------------------------------------|
D|-5*-4-5*-3--------3*---3-4-5-5*-4-5*-3--------3*---3-4-5|
A|-----------5-3-1*----5-----------------5-3-1*----5------|
E|--------------------------------------------------------|

--------2-3-2---------------------------------------|
-5*-4-5-------5-3----3*---3-4-5-5*-4-5*-3--------3*-|
------------------1*----5-----------------5-3-1*----|
----------------------------------------------------|


Refrain
G|---------------|
D|-3*-3*---------|
A|-------1*------|
E|----------3*-1-|

G|-----------------------|
D|-----------------------|
A|-5*-3------------------|
E|------5*-3-5-6*-5-4-3~-|

Bridge
G|------------|
D|-3*-6*-7*---|
A|------------|
E|------------|

Verse
G|-----------------------------------------------------|
D|-5*-4-5*-3--------3*---3-4-5-5*-4-5*-3--------3*---3-|
A|-----------5-3-1*----5-----------------5-3-1*----5---|
E|-----------------------------------------------------|

-----------2-3-2---------------------------------------|
4-5-5*-4-5-------5-3----3*---3-4-5-5*-4-5*-3--------3*-|
---------------------1*----5-----------------5-3-1*----|
-------------------------------------------------------|

Refrain
G|---------------|
D|-3*-3*---------|
A|-------1*------|
E|----------3*-1-|

G|-----------------------|
D|-----------------------|
A|-5*-3------------------|
E|------5*-3-5-6*-5-4-3~-|

Solo
G|----2-3-5-5-3-2----------------------------------------|
D|--3*------------5-5-5---5---4-4-4---4---3-3-3--3-------|
A|----------------------5---5-------5---5------5---5-3~--|
E|-------------------------------------------------------|

---2-3-5-5-3-2---------------------------------------|
-3*------------5-5-5---5---4-4-4---4---3-3-3--3------|
---------------------5---5-------5---5------5---5-3~-|
-----------------------------------------------------|
PreRefrain
G|----------------|
D|-3*-3*----------|
A|-------1*-------|
E|----------3*-3*-|

Verse
G|------------------------------------------------|
D|-5*-4-5*-3--------3*---3-4-5-5*-4-5*-3--------3-|
A|-----------5-3-1*----5-----------------5-3-1*---|
E|------------------------------------------------|

End x3
G|-----------------------|
D|-----------------------|
A|-5*-3------------------|
E|------5*-3-5-6*-5-4-3~-|
            
Submit corrections

comments powered by Disqus
↑ Back to top | Posies Bass for Solar Sister. Lyrics for acoustic guitar and electric guitar. Tablatures and chords are parodies/interpretations of the original songs. You may use it for private study, scholarship, research or language learning purposes only