» » »

Posies, Dream All Day Tabs (ver.1)

Artists:  A B C D E F G H I J K L M N O P Q R S T U V W X Y Z # 

Dream All Day Tabs (ver.1)

Posies Tabs
Rating:
0/5 (0 votes)
Hard to play? Try these video lessons and learn fast.
                #

# For the latest collection of Posies chords, go to
#
# If you have any corrections or additions to this file, please email them
#

I Could Dream All Day - The Posies 

 
Key:
 
~  = vibrato
ah = artificial harmonic
X  = clunk 
 
Chords used in the song (at least how I play 'em):
 
   F#sus4   E    Asus4  Amaj   Bmin   Bsus4    G
E  -----  -----  --0--  --0--  --2--  --2--  --3--
B  -----  --5--  --4--  --2--  --3--  --5--  --3--
G  --4--  --4--  --2--  --2--  --4--  --4--  --0--
D  --4--  --2--  --2--  --2--  --4--  --4--  --0--
A  --4--  --2--  --0--  --0--  --2--  --2--  --2--
E  --2--  --0--  -----  -----  -----  -----  --3--
 
Intro:
 
F#sus4   E   F#sus4   E
 
Bmin Bsus4 Bmin  Amaj Asus4 Amaj   Bmin Bsus4 Bmin   Amaj Asus4 Amaj
 
(note: The above line gives an overall feeling of what's going on.  There's
 some little riff that includes the (sus) 4th but it's too hard to work
 it out because of the intense guitar fuzz and general noise) 
 

Verse 1:
 
Bmin     Bsus4  Bmin     Amaj Asus4 Amaj
    I've got a  lot of   thoughts
    I've got a  lot of   plans
    I've lost a lot of   sleep
         Tryin' to under-stand
 
Chorus:
 
G          Amaj      Bmin         Amaj       
   I could dream all day (I could dream all day)
 
G          Amaj      Bmin         Amaj       
   I could dream all day (I could dream all day)
 
G          Amaj      Bmin         Amaj        G
   I could dream all daaaaaaaaaaaaaaaaaaaaaaaaay
 
           Amaj      Bmin Bsus4 Bmin    
   I could dream all day
 
Amaj Asus4 Amaj         Bmin Bsus4 Bmin     Amaj Asus4 Amaj
     I  could dream all day 
     
Verse 2:
 
In a blackened room
Staring out to space
Underneath a thousand blankets
Just to find a place
Where everything is reachable
Imagining is safe
I tried to make it so
I didn't even know
 
(chorus)
 
Bridge:
 
F#sus4   E   F#sus4   Asus4(?? funny-sounding chord)     (repeat)
Ahhhhhhhhhhhhhhhhhhhhhhhhhhhhhhh
 

Solo:
                                                                  ah
E --------14-----------------------------------------------------------
B --15~--------15----14~--14--14--                        -14----------
G --16~--------------14~--14--14---------------
A ------X----X----X---------------                        -------------
E ---------------------------------------------------------------------
 
Verse 3:
 
I dreamt I was awake
My mouth was coloured grey
As the world revolved around me
I could only say
 
(chorus)
(chorus)
            

comments powered by Disqus
↑ Back to top | Posies Tabs for Dream All Day. Lyrics for acoustic guitar and electric guitar. Tablatures and chords are parodies/interpretations of the original songs. You may use it for private study, scholarship, research or language learning purposes only