» » »

Tree Bones Tabs (ver.1)

Artists:  A B C D E F G H I J K L M N O P Q R S T U V W X Y Z # 

Tree Bones Tabs (ver.1)

Port Obrien
Rating:
0/5 (0 votes)

Hard to play? Try these video lessons and learn fast.
                -------------------------------------------------------------------------------
                             Tree Bones - Port O'brien
-------------------------------------------------------------------------------



Tuning:Standard



Chords used:

Em    022000
G     320033
Gadd4 32001x


Intro:

e|-------7--------7--10--7-------------------------7--------7--10--7------7-----|
B|-8/10-----8/10------------10--8------------8/10-----8/10------------10--------|
G|-----------------------------------7-7----------------------------------------|
D|------------------------------------------------------------------------------|
A|------------------------------------------------------------------------------|
E|------------------------------------------------------------------------------|


e|-------7--------7--10--7-------------------------7--------7--10--7------------|
B|-8/10-----8/10------------10--8------------8/10-----8/10------------10--8-----|
G|----------------------------------7-7-----------------------------------------|
D|------------------------------------------------------------------------------|
A|------------------------------------------------------------------------------|
E|------------------------------------------------------------------------------|



Chords:

Em
Dressed up with my sister
            G
I was a bat she was a fly
Em
Now were a little bigger
                 G
Still we have to cry
Em
Pine by sea, my namesake
               G
Soon we'll rot away
Em
Watch the beatles eat bark
           G
On another day



Part A:

e|------------------------------------|
B|------------------------------------|
G|-9-9-12---9-9-12---7-7-7------------|
D|-x-x--x---x-x--x---x-x-x----7-5-5---|
A|-7-7-10---7-7-10---5-5-5----x-x-x---|
E|----------------------------5-3-3---|


Mama, we'll no longer be
On this land by the sea
Push away, I beg and plead
We'll no longer come with thee



Part B:

Em
Tree bones will die alone
    G
and our own bones will find a home



Outro:

|Em      |G       |
|Em      |G       |
|Em      |Gadd4   |Gadd4   |



************************************

| /   slide up
| \   slide down
| h   hammer-on
| p   pull-off
| ~   vibrato
| +   harmonic
| x   Mute note
| b   Bend
| pb  Pre-bend
| br  Bend release
| pbr Pre-bend release
| brb Bend release bend

************************************
            
Hard to play? Try these video lessons and learn fast. | Correct




comments powered by Disqus
↑ Back to top | Tablatures and chords are parodies/interpretations of the original songs. You may use it for private study, scholarship, research or language learning purposes only