» » »

Porter, Mermaid Sashimi Tabs (ver.1)

Artists:  A B C D E F G H I J K L M N O P Q R S T U V W X Y Z # 

Mermaid Sashimi Tabs (ver.1)

Porter Tabs
 Rating:
4/5 (4 votes)
Mermaid Sashimi lessons Tabs too difficult? Try these video lessons and learn fast
                Bueno! pues La tablatura Del intro Wnecesita de un capo trasto en el primer traste (si 
no tienes uno, es fбcil improvisar uno con una pluma y una liga)

Afinaciуn: Standard (eADGBE)

:/ la puse en "Porter" por que no me dejaba ponerla en Juan Son xD disfrъtenla y amen 
esta hermosa rola

(IMPORTANTE!! (La tablatura no esta tomando en cuenta el capo, pero es mбs comoda con 
capo, los acordes si estan tomando en cuenta el capo)


Spending time with octopus...
e|--1-------|-1-------|-1-------|-1-----|
A|------2---|-----1---|-----2---|-----1-|
D|----1---1-|---1---1-|---1---1-|---1---|
G|----------|---------|---------|-------|
B|------4---|---------|-----4---|-----1-|
E|----------|-----1---|---------|-------|

despuйs se toca esto con los acordes G# Cm y B poniendo cejilla en 3er traste

        G#               Cm
And of course if we work hard enough

G#                 Cm             G#
We could go to the places we have always dream

         Cm               B
Like that cocktail we saw on…



We saw on the televisiуn...
(Figura de Do mayor con el capo)
e|--1-------|-1-------|-1-------|-1-----|
A|------2---|-----1---|-----2---|-----1-|
D|----1---1-|---1---1-|---1---1-|---1---|
G|----------|---------|---------|-------|
B|------4---|---------|-----4---|-----1-|
E|----------|-----1---|---------|-------|



           G#     Cm
I like can tell

  G#               Cm
I know itґs not so cool

 G#         Cm       G#      B
I like can tell

     C      Em     C      Em
You are what you believe you are.

  G#   Cm  G#  Cm

  C     Em    C     Em
A human ocean traveler

  G#  Cm  G#  Cm

D
But donґt trip!
My leg turned into tentacles so black and pink
Itґs hard for me Iґm not so frightened

  C         Em
No one other thinks

  C         Em
No one other thinks

  C         Em
No one other thinks

  C         Em

 Cm
oxygen at least omeone in the deep

 D
Ocean understands
That life down here depedns on someone

 C
That doesnґt suppose to make
Mermaid sashimi

 Em
My propeller hits like even though the right donґt
Come to feeling
As son as… I need ox… I need oxygen


e|--1-------|-1-------|-1-------|-1-----|
A|------2---|-----1---|-----2---|-----1-|
D|----1---1-|---1---1-|---1---1-|---1---|
G|----------|---------|---------|-------|
B|------4---|---------|-----4---|-----1-|
E|----------|-----1---|---------|-------|


y se repite todo de nuevo con la guitarra, solamente la letra cambia

tablaturas verdad? pero me diу una idea con el sonido para sacarlas

Cualquier comentario o sugerencia, ya saben donde dejarlo

Azoten la melena!

LDW
            
Submit corrections

comments powered by Disqus
↑ Back to top | Porter Tabs for Mermaid Sashimi. Lyrics for acoustic guitar and electric guitar. Tablatures and chords are parodies/interpretations of the original songs. You may use it for private study, scholarship, research or language learning purposes only