» » »

Daphne Tabs (ver.1)

Artists:  A B C D E F G H I J K L M N O P Q R S T U V W X Y Z # 

Daphne Tabs (ver.1)

Porter
Rating:
0/5 (0 votes)

Hard to play? Try these video lessons and learn fast.
                A                B              C              D
e-------0---------I--------3-3--I--------5-3--I--------1-1------|
B----------0---0--I-------------I-------------I-----------------|
G----0-------0----I-----2-------I-----2-------I-----2-----------|
D-----------------I--3----------I--3----------I--0--------------|
A-3---------------I-------------I-------------I-----------------|
E-----------------I-------------I-------------I-----------------|

                                E
e-----3-----3---3-----3-----3---3-----3-----3---3-----3-----3---3-|
B-----------------------------------------------------------------|
G-----------------------------------------------------------------|
D----------------------------------1----1-1---1----1----1-1---1---|
A--3----3-3---3----3----3-3---3-----------------------------------|
E-----------------------------------------------------------------|
                                F
e-----4-----4---4-----4-----4---4-----1-----1---1-----1-----1---1-|
B-----------------------------------------------------------------|
G-----------------------------------------------------------------|
D--1----1-1---1----1----1-1---1----3----3-3---3----3----3-3---3---|
A-----------------------------------------------------------------|
E-----------------------------------------------------------------|
                                G
e-----------------------------------------------------------------|
B-----1-----1---1-----1-----1---1-----3-----3---3-----3-----3---3-|
G-----------------------------------------------------------------|
D-----------------------------------------------------------------|
A--0----0-0---0----0----0-0---0----2----2-2---2----2----2-2---2---|
E-----------------------------------------------------------------|

So blue...A,A,A,A,B,B,B,B,A,A,A,A,B,B,B,C,D,D,B,B,A,A,A,A
Hey...E,F,E,G
you don't know me...A,A,D,D,B,B,A,A,D,D,B,B
            
Hard to play? Try these video lessons and learn fast. | Correct




comments powered by Disqus
↑ Back to top | Tablatures and chords are parodies/interpretations of the original songs. You may use it for private study, scholarship, research or language learning purposes only