» » »

White Wave Tabs (ver.1)

Artists:  A B C D E F G H I J K L M N O P Q R S T U V W X Y Z # 

White Wave Tabs (ver.1)

Portastatic
Rating:
0/5 (0 votes)

Hard to play? Try these video lessons and learn fast.
                -------------------------------------------------------------------------------
-------------------------------------------------------------------------------


intro:

bass

G|----------2-2-2-2--1-1-1-1-------------------------------------------------|
D|-2-2-2-2--------------------4-4-4-4----------------------------------------|
A|---------------------------------------------------------------------------|
E|---------------------------------------------------------------------------|

gtr

e|---0-4-0-----0-5-0---------------------------------------------------------|
B|-0-------------------------------------------------------------------------|
G|---------4h6---------------------------------------------------------------|
D|---------------------------------------------------------------------------|
A|---------------------------------------------------------------------------|
E|---------------------------------------------------------------------------|

then

bass

G|---------------------------------------------------------------------------|
D|--2-2-2-2------------------------------0-0-0-0-0---------------------------|
A|-------------------0-0-0-0--2-2-2-2----------------------------------------|
E|----------0-0-0-0----------------------------------------------------------|

gtr

e|---0-4-----0-------0------------3--3-3-3-----------------------------------|
B|-0-------2---2---2---0----5-----3--3-3-3-----------------------------------|
G|-------2-------2--------4---4---1--1-1-1-----------------------------------|
D|-----------------------4--------2--2-2-2-----------------------------------|
A|---------------------------------------------------------------------------|
E|---------------------------------------------------------------------------|

main riff:

e|---------------------------------------------------------------------------|
B|-----5--7-5--7^-7--5---5--------------------------------------------------|
G|-2h4-----------------6---6--4----------------------------------------------|
D|-------------------------------6h7-7--6h7-7---4-2-2--4-4--2-2--------------|
A|---------------------------------------------------------------------------|
E|---------------------------------------------------------------------------|


E


C#m                        A      F#m
I remember that house boat by the pool

C#m                              A        F#m
Yellow Brick Road on the jukebox that was cool

C#m                                    A                F#m
Now the sunburn stings and I feel like I was a kid, but I was fool

 C#m                               A                      F#m
'Cause it all had strings attached right down to the milk they sold us in
 school

(repeat riff)

C#m                               A                     F#m
Everything orange and yellow back then we went down the can*l by ourselves

C#m                             A            F#m
Thought we had our own crippled life, like a rope on a bell

C#m                                    A      F#m
But we were were already building a world for someone else

C#m                                     A   F#m
Yeah we were already drinkin' the dreams of someone else


A             B
You weave the rug and now pull it out

A               B                     A
I keep thinkin' how can I just see it now

                       B     E       A
We've been riding that white wave of sound

            B                   A
And every innocuous spot on the dial

               B                       A
And every transmission is some actor's smile

           B        E          A
We willing rode the white wave down


We rode the white wave down

E A

(woo hoo)

| /  slide up
| \  slide down
| h  hammer-on
| p  pull-off
| ~  vibrato
| +  harmonic
| x  Mute note
===============================================================================
            
Hard to play? Try these video lessons and learn fast. | Correct




comments powered by Disqus
↑ Back to top | Tablatures and chords are parodies/interpretations of the original songs. You may use it for private study, scholarship, research or language learning purposes only