» » »

Through With People Chords (ver.1)

Artists:  A B C D E F G H I J K L M N O P Q R S T U V W X Y Z # 

Through With People Chords (ver.1)

Portastatic
Rating:
1/5 (1 vote)

Hard to play? Try these video lessons and learn fast.
                -------------------------------------------------------------------------------
-------------------------------------------------------------------------------

*note it sounds like some of the E and B chords have extensions (like 6ths, 7ths, 
9ths) but I can't quite place them


intro: E  B  F#m

   E        B         F#m            E      B      F#m             E
e|---------------------------------------------------------------------------|
B|-12\7/12--7----------------------7/12--7-----------------------7/12-------|
G|-------------9-8--6-----6-8--9------------9-8--6-6h8p6---------------------|
D|---------------------9---------------------------------9--6----------------|
A|------------------------------------------------------------7--------------|
E|---------------------------------------------------------------------------|
   B         F#m               E    B     F#m  
e|---------------------------------------------------------------------------|
B|-7-------------------------7/12---7----------------------------------------|
G|----9-8--6-6h8p6--6h8p6----------------------------------------------------|
D|------------------------9--------------------------------------------------|
A|---------------------------------------------------------------------------|
E|---------------------------------------------------------------------------|

F#m     E                B
I guess I'm through with people

F#m             E
I can just take less and less

B                          B/A
Point your fingers, make a steeple

             B/Ab                     B        E
I'll be your hymnal in your church of loneliness

        B             F#m        E
The transition was so easy, no announcements or askin'

B              B/A                    B/Ab  
My silence was golden, my silence was free

             B                  B
And all this talking is taxing me



               E                 B
So let the sun set on this paper shade

                E                        B
Let me get some sleep in this bed that I made 

        Ebm         E            C#m
It this far, well I made it this far

              E                       Ebm    
And I'll give all the lousy credit to anyone who wants it

          D                     C#m
If they'd just let me lower the bar

          E    Ebm   F#m 
lower the bar

E    Ebm   F#m 
E    Ebm   F#m 

            E            B
I guess I'm through with people

F#m              E
I say let's call it a wash

B            B/A               B/Ab
Clean like a pickup on Friday

                B 
Stubborn like a pile of rocks


E               B                 F#m
I don't have to care I couldn't like you less

                    E
And I don't have to care about that thin cotton dress

B              B/A                     B/Ab
I could put my drink down and walk away

       F#m
It's a simple solution to a complicated maze

                                                  E
I just remembered that I'm through with people today


e|---------------------------|
B|--5------7--------5--------|
G|-----6h8---8-6\4-----------|
D|---------------------6-----|
A|---------------------------|
E|---------------------------|


               E                 B
So let the sun set on this paper shade

                E                        B
Let me get some sleep in this bed that I made 

        Ebm         E            C#m
It this far, well I made it this far

              E                       Ebm    
And I'll give all the lousy credit to anyone who wants it

          D                     C#m
If they'd just let me lower the bar

          E    Ebm   F#m 
lower the bar

E    Ebm   F#m 
E    Ebm   F#m 

I'm through with people 

repeat intro riff
            
Hard to play? Try these video lessons and learn fast. | Correct




comments powered by Disqus
↑ Back to top | Tablatures and chords are parodies/interpretations of the original songs. You may use it for private study, scholarship, research or language learning purposes only