» » »

Portastatic, Soft Rewind Tabs (ver.1)

Artists:  A B C D E F G H I J K L M N O P Q R S T U V W X Y Z # 

Soft Rewind Tabs (ver.1)

Portastatic Tabs
 Rating:
4/5 (4 votes)
Soft Rewind lessons Tabs too difficult? Try these video lessons and learn fast
1
                -------------------------------------------------------------------------------
-------------------------------------------------------------------------------


intro: C G (but G Gsus4 sounds ok too)

main rhythm riff
  G         Bm   E     C
e|---------------------------------------------------------------------------|
B|---------------------------------------------------------------------------|
G|----------4-4--1-1---5-5-5-5-----------------------------------------------|
D|-5-5-5-5--4-4--2-2---5-5-5-5-----------------------------------------------|
A|-5-5-5-5--2-2--2-2---3-3-3-3-----------------------------------------------|
E|-3-3-3-3-------0-0---------------------------------------------------------|

G                                               G         Bm   E     C
You held up the telescope fat end to your eye

    G             Bm      E          C              G                Bm
And every day after was a catalog of how to see the world through a negative

E      C
light

G             Bm          E       C         G      Bm     E       C
Pulled the horizon like a blanket over your head

    G           Bm     E          C      G           Bm      E        C
The sun was a rotting orange on a wobbly roll til it stopped dead


fill through the chorus:

   G6     G6/C   G6     D        C       F         C
e|----------------------------2-----------------------------------------------|
B|-----3------3------3----------------1------------1--1-----------------------|
G|---------------------------------0--------0h2----0--0-----------------------|
D|---5------5------5-------4-------------0---------2--2-----------------------|
A|--------3-------------5--------3-----------------3--3-----------------------|
E|-3------------3-------------------------------------------------------------|

G6              G6/C
You called it a stunning sunset
G6                        D
I call it the last of the good light
    C                    F          C
And perfect waste of the night            Already upon us yeah


solo over verse chords:


e|-----------------------------------------------------------------------------|
B|----------------------------------10-10--8--10^---10b12r10--8---8------------|
G|---------------7----7----/9---7-------------------------------9---9--7\------|
D|-4-5-4--/7--------9---9------------------------------------------------------|
A|------------9----------------------------------------------------------------|
E|-----------------------------------------------------------------------------|

e|------------------------------------------------------------------------------|
B|---------------------------------7b8------7b8-8-8-8---------------------------|
G|---------------7----7----/9---7------9--7-----------9--7\---------------------|
D|-4-5-4--/7--------9---9-------------------------------------------------------|
A|------------9-----------------------------------------------------------------|
E|------------------------------------------------------------------------------|

G                                               G         Bm   E     C
There was a point I started barking like a dog
   G                   Bm       E     C                 G       Bm     E    C
My command of new languages did not impress you but the howling drew a crowd
    G                 Bm     E              C             G          Bm E  C
The view from your roof was obscured by the street lights glowing red
    G          Bm             E            C         G             Bm     E C
The cloud cover sucked up the sound like a new quilt tuck-tied to your bed


G6              G6/C
You called it a stunning sunset
G6                        D
I call it the last of the good light
    C                    F          C
And perfect waste of the night            Already upon us yeah

(repeat solo)


C Cm C Cm Am F

oh yeah ah ooh

oh yeah

G6              G6/C
You called it a stunning sunset
G6                        D
I call it the last of the good light
    C                    F          C
And perfect waste of the night          comin down on us
G6                     G6/C
You said that we could wait for sunrise
G6                D
I don't have that kind of time
    C                    F
And we left the wasted night

waiting for the soft rewind
        C               G C G
And the voice said: This is us
C     G C G
This is us
C     G C G
This is us
C     G C G
This is us


| /  slide up
| \  slide down
| h  hammer-on
| p  pull-off
| ~  vibrato
| +  harmonic
| x  Mute note
===============================================================================
            
Submit corrections

comments powered by Disqus
↑ Back to top | Portastatic Tabs for Soft Rewind. Lyrics for acoustic guitar and electric guitar. 1 Tablatures and chords are parodies/interpretations of the original songs. You may use it for private study, scholarship, research or language learning purposes only