» » »

Portastatic, Skinny Glasses Girl Chords (ver.1)

Artists:  A B C D E F G H I J K L M N O P Q R S T U V W X Y Z # 

Skinny Glasses Girl Chords (ver.1)

Portastatic Tabs
Rating:
0/5 (0 votes)
Hard to play? Try these video lessons and learn fast.
                -------------------------------------------------------------------------------
-------------------------------------------------------------------------------

Tuning: standard


Part 1

                  (strum:   E         Asus2)
e|----------------0-----0-------------------------------------------------------|
B|---2--0---------0-----0---2---0--5--------------------------------------------|
G|--------1~~----1------2-------------------------------------------------------|
D|----------------2-----2-------------------------------------------------------|
A|-0--------------2-----0-------------------------------------------------------|
E|----------------0------0------------------------------------------------------|

Part 2

e|--4--2--0--2--0-0---0------------------------------------------------------|
B|--5--3--3--3--3-3------2---0--5-------------------------2--0---5--(x2)-----|
G|---------------------------------------------------------------------------|
D|---------------------------------------------------------------------------|
A|---------------------------------------------------------------------------|
E|---------------------------------------------------------------------------|


Part 3
    E            B             A          Abm  
 B
e|-------------------------------------------------------------------------------|
B|-------------------------------------------------------------------------------|
G|-------------------------------------------------------------------------------|
D|-2222-/-9999---77777--6--7--9--------------------------------------------------|
A|-2222-/-9999---77777--6--7--9--------------------------------------------------|
E|-0000-/-7777---55555--4--5--7--------------------------------------------------|


intro: Part 1 x2
verses: Part 1 x2  + Part 2 x2
chorus: Part 3 x4  + strum Asus2 X2  (F# then E on 'E' String on second 'Asus2')

VERSE
 E                              Asus2
When the winter got cold
 E                              Asus2
And you took us into Spring
E                       Asus2
It was worth it I know
E                                    Asus2
Do you hold on to these things?


CHORUS
E         B
Skinny glasses girl
A                                          E       B          
                A
East Texas has not seen you for a while and nor have I
E       B                    A
I was crestfallen for you, thought you knew that
E          B                    A
I'm still fallin' for you now         (Asus2)

VERSE
E                        Asus2
Sitting outside a door,
E                                Asus2
could be yours I don't know
E                            Asus2
Never talked about lust
E                                           Asus2
We shared that space on the floor
E                                   Asus2
It's usually making you pale
E                                               Asus2
Your sillhouette comes back to ? (fouth-air?)


CHORUS
E         B
Skinny glasses girl
A                                          E       B          
                A
East Texas has not seen you for a while and nor have I
E       B                    A
I was crestfallen for you, thought you knew that
E          B                    A
I'm still fallin' for you now         (Asus2)

Jam on chorus chords...

| /  slide up
| \  slide down
| B  hammer-on
| p  pull-off
| ~  vibrato
| +  harmonic
| x  Mute note
===============================================================================
            

comments powered by Disqus
↑ Back to top | Portastatic Chords for Skinny Glasses Girl. Lyrics for acoustic guitar and electric guitar. Tablatures and chords are parodies/interpretations of the original songs. You may use it for private study, scholarship, research or language learning purposes only