» » »

Stepping Stone Tabs (ver.2)

Artists:  A B C D E F G H I J K L M N O P Q R S T U V W X Y Z # 

Stepping Stone Tabs (ver.2)

Pop Evil
Rating:
0/5 (0 votes)

Hard to play? Try these video lessons and learn fast.
                This tab is in FLAT tuning.

STRUMMING FOR INTRO AND VERSE: C, Am, G, F
STRUMMING FOR CHORUS: C, G, Am, F
STRUMMING FOR BRIDGE: G, F

                            INTRO
          C          Am          G       F
Eb|---------------------------------------------|
Bb|----------1-0-------1-0-------1-0------------|
Gb|------------------------------------------2--|
Db|-------2----------2---------2----------3-----|  X3 on last time instead of
Ab|-0-2-3----------0--------------------3-------|  arpeggio chuck the chord F
Eb|--------------------------3--------1---------|

                            CHORUS
         C         G         Am         F

Eb|---------------------------------------------------------|
Bb|---------------------------------------------------6--5--|
Gb|-5--5--5--5-----------------------------------4--5-------|
Db|-5--5--5--5--5--5--5--5--7--7--7--7--3--3--3-------------|
Ab|-3--3--3--3--5--5--5--5--7--7--7--7--3--3--3-------------|
Eb|-------------3--3--3--3--5--5--5--5--1--1--1-------------|

         C         G         Am         F

Eb|---------------------------------------------------------|
Bb|---------------------------------------------------6--5--|
Gb|-5--5--5--5-----------------------------------4--5-------|
Db|-5--5--5--5--5--5--5--5--7--7--7--7--3--3--3-------------|
Ab|-3--3--3--3--5--5--5--5--7--7--7--7--3--3--3-------------|
Eb|-------------3--3--3--3--5--5--5--5--1--1--1-------------|

Eb|---------------------------------------------------------------------|
Bb|---------------------------------------------------------------------|
Gb|-/7-7-7-7-7-7-7-7--5-5--/7-7-7-7-7-7-7-7--5-5--/7-7-7-7-7-7-7-7--5-5-|
Db|---------------------------------------------------------------------|
Ab|---------------------------------------------------------------------|
Eb|---------------------------------------------------------------------|

Eb|-------------|
Bb|-------------|
Gb|-4b5b4--2----|
Db|----------5--|
Ab|-------------|
Eb|-------------|


            VERSE STRUMMING
Eb|----------------------------------------------------------------|
Bb|----------------------------------------------------------------|
Gb|----------------------------------------------------------------|
Db|----------------------------------------------------------------|
Ab|-3/5-----5/7------3/5-----3/5--3----3/5-------5/7------3/5------|
Eb|-----5---------3------1-------------------5--------3--------1---|

___________________________________________________________
                     CHORUS
___________________________________________________________


                           Bridge
                       BRIDGE STRUMMING

Eb|-------------------------------|
Bb|-------------------------------|
Gb|-------------------------------|
Db|-x-5-5-x-5-5-x-5-5-x-5-5--3--3-|
Ab|-x-5-5-x-5-5-x-5-5-x-5-5--3--3-|
Eb|-x-3-3-x-3-3-x-3-3-x-3-3--1--1-|

Eb|-------------------------------|
Bb|-------------------------------|
Gb|-------------------------------|
Db|-x-5-5-x-5-5-x-5-5-x-5-5--3--3-|
Ab|-x-5-5-x-5-5-x-5-5-x-5-5--3--3-|
Eb|-x-3-3-x-3-3-x-3-3-x-3-3--1--1-|

Eb|-------------------------------------------------------------|
Bb|-------------------------------------------------------------|
Gb|---------------------------10-10--9--9---7--7---5------------|
Db|-x-5-5-x-5-5-x-5-5-x-5-5----------------------------7--5--5--|
Ab|-x-5-5-x-5-5-x-5-5-x-5-5---8--8---7--7---5--5---3------------|
Eb|-x-3-3-x-3-3-x-3-3-x-3-3----------------------------5--3--3--|

Eb|-------------------------------|
Bb|-------------------------------|
Gb|-------------------------------|
Db|-x-5-5-x-5-5-x-5-5-x-5-5--3--3-|
Ab|-x-5-5-x-5-5-x-5-5-x-5-5--3--3-|
Eb|-x-3-3-x-3-3-x-3-3-x-3-3--1--1-|


                 CHUCK THE CHORDS C, Am, G, F
       RESUME 2ND HALF OF CHORUS THEN PLAY THE CHORUS

 If you have any suggestions about tab don't hesitate to ask. I know there is a couple 
mistakes but thats why your here.
            
Hard to play? Try these video lessons and learn fast. | Correct




comments powered by Disqus
↑ Back to top | Tablatures and chords are parodies/interpretations of the original songs. You may use it for private study, scholarship, research or language learning purposes only