>
 >
Stepping Stone

Stepping Stone Guitar Tabs

Pop Evil - Stepping Stone chords, tabs, tablatures, lyrics

Guitar lessons | Add/correct | Request | Top 50 tabs Artists:  A B C D E F G H I J K L M N O P Q R S T U V W X Y Z 0-9

Stepping Stone Guitar Tabs – Pop Evil

CD, Sheet music, Poster

Do you like Stepping Stone? Share with your friends now
ChordsTabsTabs v2Ukulele
This song is in flat.

            INTRO/VERSE
       C        Am         G       F
Eb|-----------------------------------------|
Bb|--------1-0------1-0----1-0------1-------|
Gb|--------------------------------2--2-----|
Db|-------2------2--------2------3----------| X3 Guitar2 strums C,Am,G,F
Ab|-0-2-3------0----------------------------|
Eb|----------------------3------------------|


             CHORUS

Eb|---------------|
Bb|---------------|
Gb|-5-------------| Guitar2 strums C,G,Am,F
Db|-5---5---7---3-|  X2
Ab|-3---5---7---3-|
Eb|-----3---5---1-|


Eb|-------------------------------------------------------------------------|
Bb|-------------------------------------------------------------------------|
Gb|-/7-7-7-7-7-7-7-7-5-5-/7-7-7-7-7-7-7-7-5-5-/7-7-7-7-7-7-7-7-5-5-4b5b4-2--|
Db|-----------------------------------------------------------------------5-|
Ab|-------------------------------------------------------------------------|
Eb|-------------------------------------------------------------------------|

Eb|------------------------------------------------|
Bb|------------------------------------------------|
Gb|------------------------------------------------| +INTRO STRUMMING
Db|------------------------------------------------|
Ab|-3/5---3/5----3/5----3/5-3---3/5----3/5----3/5--|
Eb|----5-----3------1--------------5------3------1-|


CHORUS

           BRIDGE (guitar2 plays {(G,G,X4)(F,F,X6)}X4

Eb|--------     |-------|
Bb|--------     |-------|
Gb|--------     |-------|
Db|-x5-5---     |-3--3--|
Ab|-x5-5---  X4 |-3--3--|
Eb|-x3-3---     |-1--1--|

Eb|--------     |-------|
Bb|--------     |-------|
Gb|--------     |-------|
Db|-x5-5---     |-3--3--|
Ab|-x5-5---  X4 |-3--3--|
Eb|-x3-3---     |-1--1--|

Eb|------     |----------------------------|
Bb|------     |----------------------------|
Gb|------     |-x8-8--7-7--5-5--3----------|
Db|-x5-5-     |--------------------5--3-3--|
Ab|-x5-5-  X4 |-x8-8--7-7--5-5--3----------|
Eb|-x3-3-     |--------------------5--3-3--|

Eb|------     |-----|
Bb|------     |-----|
Gb|------     |-----|
Db|-x5-5-     |-3---|
Ab|-x5-5-  X4 |-3---|
Eb|-x3-3-     |-1---|

Eb|
Bb|
Gb|  guitar2 plays C,G,Am,F in whole notes
Db|
Ab|
Eb|

CHORUS

__________________________________________________________________________
If you have anything to add or
change, please tell me. also rate,
too. i know there has to be at least
a couple mistakes but thats why
you are here. i know there is a
lead in the chorus but i cant quite
figure it out.





Comments


Popular Pop Evil tabs & chords
Deal With The Devil Bass Tabs
100 In A 55 Chords
Last Man Standing Chords
Purple Chords
Suy Nghi Trong Anh Chords
100 In A 55 Tabs
Hey Mister Tabs
Last Man Standing Intro Tabs
Monster You Made 1 Tabs
Stepping Stone Ukulele


Song lyrics



↑ Back to top | Tablatures and chords are parodies/interpretations of the original songs. You may use it for private study, scholarship, research or language learning purposes only
© 2014 AZChords.com Contact us | Privacy policy | DMCA | Add/correct tabs | Request tabs | Top 50 tabs