» » »

Pop Evil, Somebody Like You Tabs (ver.1)

Artists:  A B C D E F G H I J K L M N O P Q R S T U V W X Y Z # 

Somebody Like You Tabs (ver.1)

Pop Evil Tabs
Rating:
4/5 (2 votes)
Somebody Like You lessons Tabs too difficult? Try these video lessons and learn fast
                		Intro/Verse


E------------------------        -----------|
A------------------------ (X3)    ----------|
G------------------------        --8\\\6----|
B------88------11 11\8---        --8\\\6----|
D---6-----6/9------------        --6\\\4----|
E------------------------        -----------|

			4th Time

E------------------------        -------|
A------------------------ (X3)   -------|
G------------------------        --6 ---|
B------88-----11 11\8----        --6 ---|
D---6-----6/9---------------     --4 ---|
E------------------------        -------|

		Chorus  (X2)

E---------------------------------------|
A---------------------------------------|
G------8-8-----4-4-----------6-6--------|
B------8-8-----4-4-----4-4---6-6--------|
D------6-6-----2-2-----4-4---4-4--------|
E----------------------2-2--------------|

E--------------------------------------------------|
A--------------------------------------------------|
G------8-8-----4-4---------------------------------|
B------8-8-----4-4-----4-4--------xx6---xx6--------|
D------6-6-----2-2-----4-4--------xx6---xx6--------|
E----------------------2-2--------xx4---xx4--------|


Verse #2   not sure about them, but i play it same as verse #1...works fine!

			Bridge

	kinda have to find the rhythm here yourself
E----------------------------------------------------|
A----------------------------------------------------|   repeat
G-----4///////////6------6///8-8--6///8-8------------| according to
B-----4///////////6------6///8-8--6///8-8------------|   rhythym
D-----2///////////4------4///6-6--4///6-6------------|
E----------------------------------------------------|


E--------------------------------------------------|
A--------------------------------------------------|
G--------------------------------------------------|
B------88-------11 11\8--------88------------------|
D----6-----6/9--------------6-------6/4------------|
E--------------------------------------------------|


	Play Chorus,
            Then end on....   E------------|
                              A------------|
                              G----8-------|
                              B----8-------|
                              D----6-------
                              E------------|
            

comments powered by Disqus
↑ Back to top | Pop Evil Tabs for Somebody Like You. Lyrics for acoustic guitar and electric guitar. Tablatures and chords are parodies/interpretations of the original songs. You may use it for private study, scholarship, research or language learning purposes only