» » »

My Kimono Tabs (ver.1)

Artists:  A B C D E F G H I J K L M N O P Q R S T U V W X Y Z # 

My Kimono Tabs (ver.1)

Polvo
Rating:
5/5 (1 vote)

Hard to play? Try these video lessons and learn fast.
                -------------------------------------------------------------------------------------
                                POLVO - MY KIMONO                                    
-------------------------------------------------------------------------------------



TUNING

You might wanna play this with the dropped D + D-string down to A (D-A-A-G-b-e). 
That's quick and easy to tune. However, on the record it's down to B-F#-F#-E-G#-x.




p = pull off
h = hammer on
x = mute
/ = slide up
\ = slide down
<> = harmonics
() = not picked


VERSE

    .       .       .       .       .       .       .       .       .
x |-----------------------------------------------------------------|
G#|-------------------------3---------------------------------------|
E |-----------------------------0-----------------------------------|
F#|-----5-----------5-----------------------2-----------4-----------|
F#|---------4-----------4---------------2-----------4-------5p4-----|
B |-5-----------0-------------------2-----------2/-(4)----------4---|



    .       .       .       .       .       .       .       .       .       .       .
x |---------------------------------------------------------------------------------|
G#|-------------------------3-------------------------------------------------------|
E |-----------------------------0---------------------------------------------------|
F#|-----5-----------5-----------------------0-----------0---------------------------|
F#|---------4-----------4---------------2-----------4-----------4---2---x---0---x---|
B |-5-----------0-------------------2-----------2/-(4)------4-------x---------------|



    .       .       .       .       .       .       .       .       .
x |-----------------------------------------------------------------|
G#|-------------------------3---------------------------------------|
E |-----------------------------0-----------------------------------|
F#|-----5-----------5-----------------------2-----------------------|
F#|---------4-----------4---------------2-----------5p4-----9---\---|
B |-5-----------0-------------------2-----------2/-(4)--4---9---\---|



    .       .       .       .       .       .       .       .       .       .       .
x |---------------------------------------------------------------------------------|
G#|-------------------------3-------------------------------------------------------|
E |-----------------------------0---------------------------------------------------|
F#|-----5-----------5-----------------------2-----------4---------------------------|
F#|---------4-----------4---------------2-----------4-------5p4-----x---5p4-----5---|
B |-5-----------0-------------------2-----------2/-(4)----------4---x-------4-------|




CHORUS

Note: pick 2 4 6 8 and just slide over 3 5 7 9. 

    .       .       .       .       .       .       .       .       .       
x |-----------------------------------------------------------------|
G#|-----------------------------------------------------------------|
E |--------------------<9>-----------------<5>----------------------|
F#|-------------------------------------12\-----------------10------|
F#|-----2/3/4/5/6/7/8/9-----9/10----12----\-------------9-------9---|
B |-0-----------------------9/10----------------2--/9---------------|


    .       .       .       .       .       .       .       .       .      
x |-----------------------------------------------------------------|
G#|-----------------------------------------------------------------|
E |-----------------------------------------------------------------|
F#|--------------------<9>--------------12\<5>--------------10------|
F#|-----2/3/4/5/6/7/8/9<9>--9/10----12----\<5>----------9-------9---|
B |-0-----------------------9/10----------------2--/9---------------|
     

    .       .       .       .       .       .       .       .       .          
x |-----------------------------------------------------------------|
G#|--------------------<5>------------------------------------------|
E |----------------------------------------<5>----------------------|
F#|-----0h4h5h7p5p4h5-------------------12\-----------------10------|
F#|-------------------------7/10----12----\-------------9-------9---|
B |-0-----------------------7/10----------------2--/9---------------|


    .       .       .       .       .       .       .       .       .      
x |-----------------------------------------------------------------|
G#|-----------------------------------------------------------------|
E |---------------------------------------------------------0-------|
F#|--------------------<9>--------------12\<5>------------------0---|
F#|-----2/3/4/5/6/7/8/9<9>--9/10----12----\<5>----------9-----------|
B |-0-----------------------9/10----------------2--/9-x-------------|


Repeat verse and chorus.


OUTRO

    .       .       .       .       .       .       .       .       .
x |-----------------------------------------------------------------|
G#|-------------------------3---------------------------------------|
E |-----------------------------0-----------------------------------|
F#|-----5-----------5-----------------------2-----------4-----------|
F#|---------4-----------4---------------2-----------4-------5p4-----|
B |-5-----------0-------------------2-----------2/-(4)----------4---|



    .       .       .       .       .       .       .       .       .       .       .
x |---------------------------------------------------------------------------------|
G#|-------------------------3-------------------------------------------------------|
E |-----------------------------0---------------------------------------------------|
F#|-----5-----------5-----------------------0-----------0---------------------------|
F#|---------4-----------4---------------2-----------4-----------4---2---0h2h4p2p0---|
B |-5-----------0-------------------2-----------2/-(4)------4-------x---------------|


    .       .       .       .       .       .       .       .       .
x |-----------------------------------------------------------------|
G#|-------------------------3---------------------------------------|
E |-----------------------------0-----------------------------------|
F#|-----5-----------5-----------------------2-----------------------|
F#|---------4-----------4---------------2-----------5p4-----9---\---|
B |-5-----------0-------------------2-----------2/-(4)--4---9---\---|



    .       .       .       .       .       .       .       .       .       .       .
x |---------------------------------------------------------------------------------|
G#|-------------------------3-------------------------------------------------------|
E |-----------------------------0---------------------------------------------------|
F#|-----5-----------5-----------------------2-----------4---------------------------|
F#|---------4-----------4---------------2-----------4-------5p4-----x---5p4-----5---|
B |-5-----------0-------------------2-----------2/-(4)----------4---x-------4-------|
            
Hard to play? Try these video lessons and learn fast. | Correct




comments powered by Disqus
↑ Back to top | Tablatures and chords are parodies/interpretations of the original songs. You may use it for private study, scholarship, research or language learning purposes only