» » »

Message In A Bottle Tabs (ver.1)

Artists:  A B C D E F G H I J K L M N O P Q R S T U V W X Y Z # 

Message In A Bottle Tabs (ver.1)

The Police
Rating:
0/5 (0 votes)

Hard to play? Try these video lessons and learn fast.
                "(1)
Message in a Bottle

The Police



This is the main riff:
                                                                               
E-|---------------------------------------------------------------------------|
B-|---------------------------------------------------------------------------|
G-|-------8--------4--------4-------------------------------------------------|
D-|----6--------2--------4-----------6-7--------------------------------------|
A-|-4--------0--------2-----------4-------------------------------------------|
E-|----------------------------2----------------------------------------------|

Play these lightly muted power chords next:

E-|---------------------------------------------------------------------------|
B-|---------------------------------------------------------------------------|
G-|-----------------7-7-7-9-9-9-9-9-----------------7-7-7-7-7-7-7-7-----------|
D-|-7-7-7-7-7-7-7-7-7-7-7-9-9-9-9-9-4-4-4-4-4-4-4-4-7-7-7-7-7-7-7-7-----------|
A-|-7-7-7-7-7-7-7-7-5-5-5-7-7-7-7-7-4-4-4-4-4-4-4-4-5-5-5-5-5-5-5-5-----------|
E-|-5-5-5-5-5-5-5-5-----------------2-2-2-2-2-2-2-2---------------------------|

Lightly strum these bar chords:
                                                                               
E-|-4---------------5---------------2-----------------------------------------|
B-|-5---------------5---------------2-----------------------------------------|
G-|-6---------------6---------------2-----------------------------------------|
D-|-6---------------7---------------4-----------------------------------------|
A-|-4-------------------------------4-----------------------------------------|
E-|---------------------------------2-----------------------------------------|

These are the basic parts to the song, just piece them together...

Don Pope
"            
Hard to play? Try these video lessons and learn fast. | Correct




comments powered by Disqus
↑ Back to top | Tablatures and chords are parodies/interpretations of the original songs. You may use it for private study, scholarship, research or language learning purposes only