» » »

Summerbaby Bass tabs (ver.1)

Artists:  A B C D E F G H I J K L M N O P Q R S T U V W X Y Z # 

Summerbaby Bass tabs (ver.1)

Polaris
Rating:
0/5 (0 votes)

Hard to play? Try these video lessons and learn fast.
                G--------------------------------------------------
D-5-5h7-7------------------------------------------
A-------5-7--0-0-4-5-7-----------------------------
E----------------------5---------------------------

I play it this way cause I can't hear the bass 
G--------------------------------------------------
D--6-9-6----------4-7-4----------------------------
A-7--------------5------5-4-2-0--------------------
E--------5-4-2-0-----------------------------------

G--------------------------------------------------
D--------------------------------------------------
A-------------55555--------------------------------
E-55555-33333--------------------------------------
            
Hard to play? Try these video lessons and learn fast. | Correct




comments powered by Disqus
↑ Back to top | Tablatures and chords are parodies/interpretations of the original songs. You may use it for private study, scholarship, research or language learning purposes only