» » »

Polaris, Hey Sandy Tabs (ver.3)

Artists:  A B C D E F G H I J K L M N O P Q R S T U V W X Y Z # 

Hey Sandy Tabs (ver.3)

Polaris Tabs
Rating:
4/5 (3 votes)
Hey Sandy lessons Tabs too difficult? Try these video lessons and learn fast
                -------------------------------------------------------------------------------
                             SONG NAME - Band Name
-------------------------------------------------------------------------------

Tuning: Standard

Intro

   D       C#m      Bm          A    Amaj7   A
e|--------------------------------------------------|
B|-10-------5--------3----------2------2-----2------|
G|-11-------6--------4----------2------1-----2------|
D|-12-------6--------4----------2------2-----2------|
A|-12-------4--------2------------------------------|
E|--------------------------------------------------|

Verse

     hey smiling strange, 
     you're looking happily deranged
     can you settle to shoot me, 
     or have you picked your target yet

   A             D              F#            E
e|-0-------------2---------------2------------0----|
B|-2-------------3---------------2------------0----|
G|-2-------------2---------------3------------1----|
D|-2-------------0---------------4------------2----|
A|-0-----------------------------4------------2----|
E|-------------------------------2------------0----|

Chorus

     hey sandy - ay ay ay ay
     don't you talk back - ay ay ay ay
     hey sandy

   D       C#m      Bm          A    Amaj7   A
e|--------------------------------------------------|
B|-10-------5--------3----------2------2-----2------|
G|-11-------6--------4----------2------1-----2------|
D|-12-------6--------4----------2------2-----2------|
A|-12-------4--------2------------------------------|
E|--------------------------------------------------|

Verse 2

     four feet away
     end of speech is the end of the day
     we was only funnin'
     but guiltily i thought you had it coming

   A             D              F#            E
e|-0-------------2---------------2------------0----|
B|-2-------------3---------------2------------0----|
G|-2-------------2---------------3------------1----|
D|-2-------------0---------------4------------2----|
A|-0-----------------------------4------------2----|
E|-------------------------------2------------0----|

Chorus

     hey sandy - ay ay ay ay
     don't you talk back - ay ay ay ay
     hey sandy

   D       C#m      Bm          A    Amaj7   A
e|--------------------------------------------------|
B|-10-------5--------3----------2------2-----2------|
G|-11-------6--------4----------2------1-----2------|
D|-12-------6--------4----------2------2-----2------|
A|-12-------4--------2------------------------------|
E|--------------------------------------------------|

Break

   D        A      E      A
e|----------------------------------|
B|-10--10---5--5---0--0---5--5------|
G|-11--11---6--6---1--1---6--6------|
D|-12--12---7--7---2--2---7--7------|
A|-12--12---7--7---2--2---7--7------|
E|----------------------------------|

   D        A      E      A
e|----------------------------------|
B|-10--10---5--5---0--0---5--5------|
G|-11--11---6--6---1--1---6--6------|
D|-12--12---7--7---2--2---7--7------|
A|-12--12---7--7---2--2---7--7------|
E|----------------------------------|

Pre-Solo

   D       C#m      Bm          A    Amaj7   A
e|--------------------------------------------------|
B|-10-------5--------3----------2------2-----2------|
G|-11-------6--------4----------2------1-----2------|
D|-12-------6--------4----------2------2-----2------|
A|-12-------4--------2------------------------------|
E|--------------------------------------------------|

Rhythm Chords under Solo

   A             D              F#            E
e|-0-------------2---------------2------------0----|
B|-2-------------3---------------2------------0----|
G|-2-------------2---------------3------------1----|
D|-2-------------0---------------4------------2----|
A|-0-----------------------------4------------2----|
E|-------------------------------2------------0----|

Solo

           A    D   F#    E    A    D   F#    E    A    D   F#   E 
e|-12-10-9-------------12-10-9-------------12-10-9------9---10---9------|
B|---------10---9--------------10---9--------------10-------------------|
G|------------------11------------------11------------------------------|
D|----------------------------------------------------------------------|
A|----------------------------------------------------------------------|
E|----------------------------------------------------------------------|


e|-5-5-5-5-4-4-4-4-2-2-2-2-4-4-4-4-------|
B|-5-5-5-5-5-5-5-5-3-3-3-3-5-5-5-5-------|
G|---------------------------------------|
D|---------------------------------------|
A|---------------------------------------|
E|---------------------------------------|


Chorus

     hey sandy - ay ay ay ay
     don't you talk back - ay ay ay ay
     hey sandy
     hey sandy - ay ay ay ay
     don't you talk back - ay ay ay ay
     hey sandy
     
   D       C#m      Bm          A    Amaj7   A      D - last time only
e|-----------------------------------------------|---------|
B|-10-------5--------3----------2------2-----2---|---10----|
G|-11-------6--------4----------2------1-----2---|---11----|
D|-12-------6--------4----------2------2-----2---|---12----|
A|-12-------4--------2---------------------------|---12----|
E|-----------------------------------------------|---------|

Outro

   D        A      E      A
e|----------------------------------|
B|-10--10---5--5---0--0---5--5------|
G|-11--11---6--6---1--1---6--6------|
D|-12--12---7--7---2--2---7--7------|
A|-12--12---7--7---2--2---7--7------|
E|----------------------------------|

   D        A      E      A
e|----------------------------------|
B|-10--10---5--5---0--0---5--5------|
G|-11--11---6--6---1--1---6--6------|
D|-12--12---7--7---2--2---7--7------|
A|-12--12---7--7---2--2---7--7------|
E|----------------------------------|

Outro Solo - random stuff in A major scale (mostly these notes)

e|-0-2-4-5-7-9-10----------------|
B|----------------3-2-0----------|
G|----------------------4--------|
D|-------------------------------|
A|-------------------------------|
E|-------------------------------|

End on A chord

===============================================================================
            

comments powered by Disqus
↑ Back to top | Polaris Tabs for Hey Sandy. Lyrics for acoustic guitar and electric guitar. Tablatures and chords are parodies/interpretations of the original songs. You may use it for private study, scholarship, research or language learning purposes only