» » »

Zombies Are Good For Your Health Tabs (ver.1)

Artists:  A B C D E F G H I J K L M N O P Q R S T U V W X Y Z # 

Zombies Are Good For Your Health Tabs (ver.1)

Poison The Well
Rating:
0/5 (0 votes)

Hard to play? Try these video lessons and learn fast.
                
Note: i saw Poison the Well last week (Dec. 5 @ the Emerson) and got there plenty early so by the time they came on i had a VERY good view. They opened w/ this song, and i watched very carefully to both guitars; this is pretty much a note for note transcription. ENJOI!

TUNING : CGCFAD (drop D transposed one step lower across all 6 strings)

Guitar 1: Heavy Distortion (Verse)
 
D------------------------------------------    ------
A------------------------------------------   -------
F----4-4-4-4-4-4-4-4-----------------------    ------
C---(4)(4)(4)(4)(4)(4)-4-3------2-2-2--0---    --1---
G----2-2-2-2-2-2-2-2---4-3 -----2-2-2--0---    --1---
C----------------------4-3------2-2-2--0---    --1---
 
Guitar 2 Heavy Distortion (Verse)

D------------------------------------------   -----
A------------------------------------------   -----
F----4-4-4-4-4-4-4-4-----------------------   -----
C----4-4-4-4-4-4-4-4---4-3------2-2-2--0---   --1--
G----2-2-2-2-2-2-2-2---4-3------2-2-2--0---   --1--
C----------------------4-3------2-2-2--0---   --1--

Chorus Guitar 1 Heavy Distortion

D-------------------------------------------------   -----
A-----------------------------------------5-5-----   -----
F--------------------------------------(B)7(7)----   ----- 
C----00-------5-p-0---------------------0---------   --1--
G----00--5-p-0-----5-p-0-------5-p-0----0---------   --1--
C----00------------------7-p-0----------0---------   --1--

play verse over again

Fill 1 Both Guitars Heavy Distortion

-----
-----
-----
-----
--2--
--2--

Bridge Both Guitars

--------------------------------
------xxxx---xxxxx--------------
--------------------------------
--------------------------------
----00-----00-----00------------
----00-----00-----00------------

play Chorus Riff and voila! song! 
also check out my other tabs.
            
Hard to play? Try these video lessons and learn fast. | Correct




comments powered by Disqus
↑ Back to top | Tablatures and chords are parodies/interpretations of the original songs. You may use it for private study, scholarship, research or language learning purposes only