» » »

To Mandate Heaven Tabs (ver.1)

Artists:  A B C D E F G H I J K L M N O P Q R S T U V W X Y Z # 

To Mandate Heaven Tabs (ver.1)

Poison The Well
Rating:
0/5 (0 votes)

Hard to play? Try these video lessons and learn fast.
                Intro x2

D-------------------    D-------------------
A-------------------    A-------------------
F-------------------    F-------------------
C-------------------    C-------------------
G--7p5-6p4-5p3-4p2--    G--8p6-6p4-5p3-7p5--
D-------------------    D-------------------

|_______x3_________|    |_______x1__________|


Verse

D--------------------------------------------------------
A--------------------------------------------------------
F--------------------------------------------------------
C--------------------------------------------------------
G--222-222-2--222-222-222-2--222-222-2--7p5-6p4-5p3-4p2--
D--000-000-0--000-000-000-0--000-000-0-------------------

|_____________________x2_________________________________|


D-----------------------------------------------------
A-----------------------------------------------------
F-----------------------------------------------------
C-----------------------------------------------------
G-222-2-222-2-222-2-222-2-222-2-222-2-7p5-6p4-5p3-4p2-
D-000-0-000-0-000-0-000-0-000-0-000-0-----------------

|_____________________x2_________________________________|

Next Part

D---------------------------------------
A---------------------------------------
F---------------------------------------
C---------------------------------------
G--2-2-2-2--2-2-2----2-2-2-2-2-2-2-2-2-2
D--0-0-0-0--0-0-0----0-0-0-0-0-0-0-0-0-0

D-----------------------
A-----------------------
F-----------------------
C-----------------------
G--2222222-222-222-222-2
D--0000000-000-000-000-0

Next Part

D----------------------------------
A----------------------------------
F----------11--11----11-11-11-11-11
C--9-9-9-9-9-9-9--9--9--9--9--9--9-
G--7-7-7-7-7-7-7--7--7--7--7--7--7-
D----------------------------------

|__________x4_____________|

D------------------------------------------------------------------
A------------------------------------------------------------------
F--9-9-9-9-8-8-8-8-9-9-9-9-8-8-8-8-9-9-12-12-12-12-12-12-12-12-12--
C--9-9-9-9-8-8-8-8-9-9-9-9-8-8-8-8-9-9-12-12-12-12-12-12-12-12-12--
G--7-7-7-7-6-6-6-6-7-7-7-7-6-6-6-6-7-7-10-10-10-10-10-10-10-10-10--
D------------------------------------------------------------------

|_________________________________________x4______________________|

D----------------------------------
A----------------------------------
F----------11--11----11-11-11-11-11
C--9-9-9-9-9-9-9--9--9--9--9--9--9-
G--7-7-7-7-7-7-7--7--7--7--7--7--7-
D----------------------------------

|_________________x4_______________|

D-----------------------------------------
A-----------------------------------------
F-----------------------------------------
C-----------------------------------------
G--22222-2-222222-2-2---22222-2-222222-2-2
D--00000-0-000000-0-0---00000-0-000000-0-0
|__________________x6_____________________|

D----
A----
F----
C----
G-2--
D-0--

|_x2_|

D---------------------------------------------
A---------------------------------------------
F---------------------------------------------
C--9-9-9-9--8-8-8-8--12-12-12-12--11-11-11-11-
G--7-7-7-7--6-6-6-6--10-10-10-10--9--9--9--9--
D---------------------------------------------

|__________________Until End___________________|
            
Hard to play? Try these video lessons and learn fast. | Correct




comments powered by Disqus
↑ Back to top | Tablatures and chords are parodies/interpretations of the original songs. You may use it for private study, scholarship, research or language learning purposes only