>
 >
Sticks And Stones Never Made Sence

Sticks And Stones Never Made Sence Guitar Tabs

Poison The Well - Sticks And Stones Never Made Sence chords, tabs, tablatures, lyrics

Guitar lessons | Add/correct | Request | Top 50 tabs Artists:  A B C D E F G H I J K L M N O P Q R S T U V W X Y Z 0-9

Sticks And Stones Never Made Sence Guitar Tabs – Poison The Well

CD, Sheet music, Poster

Do you like Sticks And Stones Never Made Sence? Share with your friends now
Tabs
POISON THE WELL:

Sticks and Stones Never Made Sense
C-G-C-F-A-D


D|----------------------------------------------------|
A|----------------------------------------------------|
F|-10-9---101010-9---10-10--9-------------------------|
C|-9--8---9-9-9--8---9--9---8---33-5/6666/11111111111-|
G|-8--7---8-8-8--7---8--8---7-0-33-5/6666/11111111111-|
C|-------0----------0--0------0-33-5/6666/11111111111-| (11th Fret)
		     2x

D|--------------------------------------------------|
A|--------------------------------------------------|
F|-4-4------4-4------4-4--------------1111111111111-|
C|-3-3-23-5-3-3-23-5-3-3-23-5-5/66666/1111111111111-|
G|-2-2-23-5-2-2-23-5-2-2-23-5-5/66666/1111111111111-|
C|-----23-5-----23-5-----23-5-5/66666/1111111111111-|
		     4x-

D|--------------------|
A|--------------------|
F|--------------------|
C|-2-2--2-222-1-1-1-1-|
G|-2-2--2-222-1-1-1-1-|
C|-2-2--2-222-1-1-1-1-|
    {------P.M.----}

D|------------------------------|
A|------------------------------|
F|-6666666666666666666666-------|
C|-7777774444440000004444-3-5-2-|
G|-0000004444440000004444-3-5-2-|
C|-0000004444440000004444-3-5-2-|

D|---------------|----------|
A|---------------|----------|
F|-8/9999-8/9999-|----------|
C|-6/7777-6/7777-|-6~--0~---|
G|-6/7777-6/7777-|-4~--0~---|
C|-6/7777-6/7777-|-4~--0~---|
                  ~let ring~

D|-------------------------------------|----------|
A|-------------------------------------|----------|
F|-7-7-7777-7-7-7777-7-7-7777-7-7-7777-|-6~-------|
C|-7-7-7777-7-7-7777-7-7-7777-7-7-7777-|-4~-------|
G|-5-5-5555-5-5-5555-5-5-5555-5-5-5555-|-4~-------|
C|-5-5-5555-5-5-5555-5-5-5555-5-5-5555-|-4~-------|
  P.M* ****   * ****   * ****   *  2x     ~let ring~


D|-------------------------------|-------------------------------|
A|-------------------------------|-------------------------------|
F|-------------------------------|------------7--------------7---|
C|-000000-0-0---0-000000-0-0---0-|-000000-0-0-7-0-000000-0-0-7-0-|
G|-000000-0-0---0-000000-0-0---0-|-000000-0-0---0-000000-0-0---0-|
C|-000000-0-0---0-000000-0-0---0-|-000000-0-0---0-000000-0-0---0-|
All Palm Mutes	       	4x				4x

D|----------|
A|----------|
F|----------|
C|-6~--0~---|
G|-4~--0~---|
C|-4~--0~---|
  ~let ring~


D|---------------------------|
A|---------------------------|
F|-7-7-7777-7-7-7777-7-7-7-7-|
C|-7-7-7777-7-7-7777-7-7-7-7-|
G|-5-5-5555-5-5-5555-5-5-5-5-|
C|-5-5-5555-5-5-5555-5-5-5-5-|

D|-------------------------------|-------------|
A|-------------------------------|-------------|
F|-6666666666666666666666--------|-------------|
C|-0000004444440000004444-33-5-2-|-0~----------|
G|-0000004444440000004444-33-5-2-|-0~----------|
C|-0000004444440000004444-33-5-2-|-0~----------|
		4x                ~let ring 4x~

D|---------------------------------|
A|---------------------------------|
F|-11~-----10~-----12~-----11~-----| 2
C|-x~------x~------x~------x~------| x
G|-9~------8~------10~-----9~------|
C|-0~------0~------0~------0~------|
	    ~let ring~

D|---------------------------------------------------------|
A|---------------------------------------------------------|
F|---------14-14---------14-14---------14-14---------18-18-| 3
C|-0-0-0-00--0---0-0-0-00--0---0-0-0-00--0---0-0-0-00--0---| x
G|-0-0-0-00--0---0-0-0-00--0---0-0-0-00--0---0-0-0-00--0---|
C|-0-0-0-00--0---0-0-0-00--0---0-0-0-00--0---0-0-0-00--0---|
       P.M.	     P.M.	   P.M.          P.M.

D|----------------------------------------------------------|
A|----------------------------------------------------------|
F|---------14-14---------14-14---------14-14---------18-18\-| 
C|-0-0-0-00--0---0-0-0-00--0---0-0-0-00--0---0-0-0-00--0----| 
G|-0-0-0-00--0---0-0-0-00--0---0-0-0-00--0---0-0-0-00--0----|
C|-0-0-0-00--0---0-0-0-00--0---0-0-0-00--0---0-0-0-00--0----|
       P.M.	     P.M.	   P.M.          P.M.





Comments


Popular Poison The Well tabs & chords
A Wish For Things That Work Bass Tabs
Grain Of Salt Bass Tabs
Loved Ones Bass Tabs
Nerdy 1 Bass Tabs
Slice Paper Wrist 2 Bass Tabs
Artists Rendering Of Me Tabs
Crystal Lake Tabs
Purple Sabbath Tabs
Slice Paper Wrists Tabs
Torn Tabs


Song lyrics



↑ Back to top | Tablatures and chords are parodies/interpretations of the original songs. You may use it for private study, scholarship, research or language learning purposes only
© 2014 AZChords.com Contact us | Privacy policy | DMCA | Add/correct tabs | Request tabs | Top 50 tabs