» » »

Slice Paper Wrists Bass tabs (ver.1)

Artists:  A B C D E F G H I J K L M N O P Q R S T U V W X Y Z # 

Slice Paper Wrists Bass tabs (ver.1)

Poison The Well
Rating:
0/5 (0 votes)

Hard to play? Try these video lessons and learn fast.
                \ = slide down
~ = let ring


Part 1 
(guitars start and then bass comes in)
G|-----------------|
D|-----------------|
A|-6-6-6-6-8-8-8-8-|
E|-----------------| 
Then...
G|-----------------|
D|-----------------|
A|-----------------|
E|-111---111-------| 

Part 2
(Strum this)
G|-----------------------------------|
D|-----------------------------------|
A|-2(x16)-5(x16)---555--------3(x16)-|
E|---------------------555-00--------|

Part 3
(with guitar at beginning then pause...)
G|-----|
D|-----|
A|-----|
E|-00--| 
Then...
(...come back in with the short slide)
G|--------------|
D|--------------|
A|--------------|
E|-2\\\-00-0000-|

Part 4
G|----------------|
D|----------------|
A|----------------|
E|-00--0000--0000-|

Part 5 "as i ask...why ask these questions"
(play along with guitar palm mutes)
G|-------------|
D|-------------|
A|-------------|
E|-000000-0000-|

Part 4 again

Part 6 (there might be a few extra notes the bass plays, but played along with the guitars it sounds ok)
G|------------------------------|
D|------------------------------|
A|-7-777-7-77-7-8-8888----------|
E|---------------------88888-88-|
Then...
(guitar plays by itself a few times then bass comes in...)
G|-------------------|
D|-------------------|
A|-------------------|
E|-10-12-12-12-12-12-|

Part 5 again

Part 7 (slow part... not sure about this part... but it sounds ok)
G|-------------|
D|-------------|
A|-3~-----3-5~-|
E|----0~-------|

Part 5 again (sincerly yours... ending)
            
Hard to play? Try these video lessons and learn fast. | Correct




comments powered by Disqus
↑ Back to top | Tablatures and chords are parodies/interpretations of the original songs. You may use it for private study, scholarship, research or language learning purposes only