» » »

Rings Of Corona Tabs (ver.1)

Artists:  A B C D E F G H I J K L M N O P Q R S T U V W X Y Z # 

Rings Of Corona Tabs (ver.1)

Poison The Well
Rating:
4/5 (1 vote)

Hard to play? Try these video lessons and learn fast.
                Band: Poison The Well
Tuning: CGCFAD



D |-----------------------|      D|-------------------------|
A |-----------------------|      A|-------------------------|  
F |-----------------------|      F|-------------------------|
C |-6p5-0-4p3-0-0h1-0h3---| x    C|-1-1-0-0-----------------|
G |-6p5-0-4p3-0-0h1-0h3-- |      G|-1-1-0-0-----------------|
C |-6p5-0-4p3-0-0h1-0h3-- |      C|-1-1-0-0-----------------|

P.M     *     *                     * *                      

Guitar 2
D |----------------------------------|   D |----------------------|
A |----------------------------------|   A |----------------------|
F |----------------------------------|   F |----------------------|     
C |-6p5-0-4p3-0----------------------|   C |-1-1-0-0--------------|
G |-6p5-0-4p3-0-0h1-0h2-0h3----------|   G |-1-1-0-0--------------|
C |-6p5-0-4p3-0----------------------|   C |-1-1-0-0--------------|

P.M     *     *                              * *

Guitars 1&2
D |-------------------------|-----------------|
A |-------------------------|-----------------|
F |-555555-5555-444444-4444-|--14-13-14-16-18-|
C |-333333-3333-222222-2222-|-----------------| x 2
G |-333333-3333-222222-2222-|--12-11-12-14-16-|
C |-333333-3333-222222-2222-|-----------------|

D|-----------------------------|----------------| 
A|-----------------------------|----------------|
F|-777777-7777-777777-7777-----|-777-666-7-9-11-|x2
C|-777777-7777-777777-7777-----|-XXX-XXX-X-X-XX-|
G|-555555-5555-555555-5555-----|-555-444-5-7-9--|
C|-555555-5555-444444-4444-\15/|----------------|

D|-----------------------------------------------------------|
A|-----------------------------------------------------------|
F|-7777777777777777-11-11-11-11-11-11-11-11-11-11111-111111--|
C|-5555555555555555-X--X--X--X--X--X--12-12-12-12-12-121212--|
G|-5555555555555555-9--9--9--9--9--9--9--9--9--9--9--99999---|
C|-5555555555555555-0--0--0--0--0--0--0--0--0--0--0--00000---|

D|---------||------------| 
A|---5---5-||------------|
F|---------||------------| 
C|-4---3---||-000-000-000|x4 
G|-4---3---||-000-000-000| 
C|-4---3---||-000-000-000|
           P.M**  **  ** 
C|----------------
A|----------------
F|-777-77777-8~00-
C|-XXX-XXXXX-X-00-
G|-555-55555-6~00-
C|-------------00-

C|-000-000-000|
G|-000-000-000|
C|-000-000-000|
P.M**  **  **  
You get The Gist of it all.  If you don’t your hopeless!
            
Hard to play? Try these video lessons and learn fast. | Correct




comments powered by Disqus
↑ Back to top | Tablatures and chords are parodies/interpretations of the original songs. You may use it for private study, scholarship, research or language learning purposes only