» » »

Poison The Well, Nerdy Dadgbe Tabs (ver.1)

Artists:  A B C D E F G H I J K L M N O P Q R S T U V W X Y Z # 

Nerdy Dadgbe Tabs (ver.1)

Poison The Well Tabs
 Rating:
4/5 (4 votes)
Nerdy Dadgbe lessons Tabs too difficult? Try these video lessons and learn fast
1
                Albun: Opposite of December
Label: Trustkill

Tuning: DADGBe
yes this is in drop D.. if you didnt know all ptw is in drop d tuning


Lead Guitar (Verse)
e|-----------17--------17---17--------------------------|
B|-18---18--------18-------------18---18----------------|
G|---17---17---17---17---17---17---17---17--------------|
D|------------------------------------------------------|
A|------------------------------------------------------|
D|------------------------------------------------------|

e|-----------17--------17---17--------------------------|
B|-18---18--------18-------------18---18----------------|
G|---17---17---17---17---17---17---17---17--------------|
D|------------------------------------------------------|
A|------------------------------------------------------|
D|------------------------------------------------------|


2nd Guitar (palm muted) (verse)
e|-------------------------------------------|
B|-------------------------------------------|
G|-------------------------------------------|
D|-33333-333-33333-333--77777-777-77777-777--|X6
A|-33333-333-33333-333--77777-777-77777-777--|
D|-33333-333-33333-333--77777-777-77777-777--|

_______________________________________________________________________________



lead guitar (chorus) palm muted
e|------------------------------------------------------|
B|------------------------------------------------------|
G|------------------------------------------------------|
D|-33-2-3-33-2-3--22-2-3-22-2-3-00-2-3-00-2-3-88-2-3----|
A|-33-----33------22-----22-----00-----00-----88--------|
D|-33-----33------22-----22-----00-----00-----88--------|

e|--------|------------|
B|--------|------------|
G|--------|------------|
D|-88-2-3-|-0----------|
A|-88-----|-0-let ring-|
D|-88-----|-0----------|


2nd guitar (chorus)
e|------------------------------------------------------|
B|------------------------------------------------------|
G|------------------------------------------------------|
D|-3-3-333--2-2-222--0-0-000--8-8-888-----0-------------|
A|-3-3-333--2-2-222--0-0-000--8-8-888-----0-let ring----|
D|-3-3-333--2-2-222--0-0-000--8-8-888-----0-------------|

_______________________________________________________________________________

BRIDGE

  only 2nd guitar (all palm muted)
e|------------------------------------------------------|
B|------------------------------------------------------|
G|------------------------------------------------------|
D|--------------------------------drum------------------|
A|-00000---00000--000-00-00000----pause-----------------|
D|-00000---00000--000-00-00000--------------------------|

e|------------------------------------------------------|
B|------------------------------------------------------|
G|------------------------------------------------------|
D|-00000-000-00-00000-00-000-00-0000-00-000-00-00000----|
A|-00000-000-00-00000-00-000-00-0000-00-000-00-00000----|
D|-00000-000-00-00000-00-000-00-0000-00-000-00-00000----|

e|------------------------------------------------------|
B|-------------------let each ring 8 counts-------------|
G|------------------------------------------------------|
D|-00-00-00000-------0------0-----0-----0---------------|
A|-00-00-00000-------0------0-----0-----0---------------|
D|-00-00-00000-------0------0-----0-----0---------------|

_______________________________________________________________________________

Breakdown


Guitar (all palm muted except for high chord)
e|------------------------------------------------------|
B|------------------------------------------------------|
G|-------------------222-2-2----------------------------|
D|-0-0-0-0-0000-0-0--666-6-6--repeat 4 times------------|
A|-0-0-0-0-0000-0-0-------------------------------------|
E|-0-0-0-0-0000-0-0-------------------------------------|

e|------------------------------------------------------|
B|------------------------------------------------------|
G|------------------------------------------------------|
D|-0-0-0-0-0000-0-0---repeat 4 times--------------------|
A|-0-0-0-0-0000-0-0-------------------------------------|
E|-0-0-0-0-0000-0-0-------------------------------------|

e|------------------------------------------------------|
B|------------------------------------------------------|
G|------------------------------------------------------|
D|-0--repeated notes--til end of song-------------------|
A|-0-------follow the bass drum-------------------------|
E|-0----------------------------------------------------|


and thats it.. much easier in drop D.
            
Submit corrections

comments powered by Disqus
↑ Back to top | Poison The Well Tabs for Nerdy Dadgbe. Lyrics for acoustic guitar and electric guitar. 1 Tablatures and chords are parodies/interpretations of the original songs. You may use it for private study, scholarship, research or language learning purposes only