» » »

Poison The Well, Nagaina Tabs (ver.1)

Artists:  A B C D E F G H I J K L M N O P Q R S T U V W X Y Z # 

Nagaina Tabs (ver.1)

Poison The Well Tabs
Rating:
0/5 (0 votes)
Nagaina lessons Tabs too difficult? Try these video lessons and learn fast
                This is the first tab ever from the new cd.

This is only the rhythm, I cant figure out the lead


Tunning: Standard
Intro 0:03-0:32
e-----------------------------------------]
b-----------------------------------------]
g-----------------------------------------]
d-----12--------------12--------------12--]
a-7-7-10-7---7-7--7-7-10-7---7-7--7-7-10-7]
E-0-0----0---0-0--0-0----0---0-0--0-0----0]

On the last one ( 0:30 - 0:32) just do the same rhythm but stay on the E.
Verse 0:32 - 1:00
e---------------|---------------]
b---------------|---------------]
g-----x4--------|------X4-------]
d---------------|---------------]
a-7-7---7-7--7-7|-4-4---4-4--4-4]
E-0-0---0-0--0-0|-2-2---2-2--2-2]

e---------------|---------------|---------------]
b---------------|---------------|---------------]
g-----x4--------|------X2-------|------X2-------]
d---------------|---------------|---------------]
a-7-7---7-7--7-7|-4-4---4-4--4-4|-5-5---5-5--5-5]
E-0-0---0-0--0-0|-2-2---2-2--2-2|-3-3---3-3--3-3]

Chorus 1:01 - 1:30
e-------------|-------------]--
b-------------|-------------]  \
g---x4--------|----x4-------]   \
d-------------|-9-9-9-9-99-9]    x2
a-7-7-7-7-77-7|-9-9-9-9-99-9]   /
E-0-0-0-0-00-0|-7-7-7-7-77-7]--/

Bridge 1:30 - 1:53
e-------------------------------------]
b-------------------------------------]
g-5--7----5--7---10--7----5--7----7--6]
d-5--7----5--7---10--7----5--7----7--6]
a-3--5----3--5----8--5----3--5----5--4]
E-------------------------------------]

2nd Verse (same as the first) 1:53 - 2:21
e---------------|---------------]
b---------------|---------------]
g-----x4--------|------X4-------]
d---------------|---------------]
a-7-7---7-7--7-7|-4-4---4-4--4-4]
E-0-0---0-0--0-0|-2-2---2-2--2-2]

e---------------|---------------|---------------]
b---------------|---------------|---------------]
g-----x4--------|------X2-------|------X2-------]
d---------------|---------------|---------------]
a-7-7---7-7--7-7|-4-4---4-4--4-4|-5-5---5-5--5-5]
E-0-0---0-0--0-0|-2-2---2-2--2-2|-3-3---3-3--3-3]

2nd Chorus 2:22 - 2:51
Guitar 1
e----------------------------------]
b----------------------------------]
g-9-9-9-9-9-9-1211-----------------]
d-9-9-9-9-9-9-1211-9-9-9-91010-9-13]
a-7-7-7-7-7-7-10-9-9-9-9-91010-9-13]
E------------------7-7-7-7-8-8-7-11] 

Guitar 2
e--------------------------------]
b--------------------------------]
g-----------------4-4-4-4-5-5-4-8]
d-------------5-4-4-4-4-4-5-5-4-8]
a-2-2-2-2-2-2-5-4-2-2-2-2-3-3-2-6]
E-0-0-0-0-0-0-3-2----------------]

Little Guitar Break 2:51 - 2:54
e-----------------]
b-----------------]
g-5-555-555-555-55]
d-5-555-555-555-55]
a-3-333-333-333-33]
E-----------------]

Ending 2:55 - 4:07
e-----------------------------------------------------]
b-----------------------------------------------------]
g-5-555-555-555-554-444-444-444-449-999-999-9912121212]
d-5-555-555-555-554-444-444-444-449-999-999-9912121212]
a-3-333-333-333-332-222-222-222-227-777-777-7710101010]
E-----------------------------------------------------]

e--------------------------]
b--------------------------]
g--------------------------]
d-9-999-999-99101010-131313]
a-9-999-999-99101010-131313]
E-7-777-777-77-8-8-8-111111]


Well thats it and have fun 
PTW Rocks

                                                                       
            

comments powered by Disqus
↑ Back to top | Poison The Well Tabs for Nagaina. Lyrics for acoustic guitar and electric guitar. Tablatures and chords are parodies/interpretations of the original songs. You may use it for private study, scholarship, research or language learning purposes only