» » »

Poison The Well, My Mirror No Loger Reflects Bass tabs (ver.1)

Artists:  A B C D E F G H I J K L M N O P Q R S T U V W X Y Z # 

My Mirror No Loger Reflects Bass tabs (ver.1)

Poison The Well Tabs
 Rating:
4/5 (4 votes)
My Mirror No Loger Reflects lessons Tabs too difficult? Try these video lessons and learn fast
                WAIT x4

Verse
G|--------------------|
D|--------------------|
A|--------------------|
D|-99-09-999--000-000-| (x8)

Chorus
G|------------------------------------|-------------------------------------|
D|------------------------------------|-------------------------------------|
A|------------------------------------|-------------------------------------|
D|-77777777-88888888--00-00-00-00-0-0-|-77777777-88888888--000-0--000-000-0-| (x2)

WAIT x1

Verse
G|--------------------|
D|--------------------|
A|--------------------|
D|-99-09-999--000-000-| (x4)

G|------|
D|------|
A|------|
D|-0~~~-|

WAIT

Slow Part
G|----------------------------------|
D|----------------------------------|
A|-3~~~~----2~~~~----5~~~~----------|
D|----------------------------0~~~~-| (x2)

Second Chorus
G|-----------------------------|
D|-----------------------------|
A|-----------------------------|
D|-8-8-8-8-7-7-7-7-10-10-10-10-|

G|-------------------------------|------------------------------|
D|-------------------------------|------------------------------|
A|-------------------------------|------------------------------|
D|-8--x-x-7--x-x-10--x-x-12--x-x-|-00000000--0-0--00000000--0-0-| (x4)

G|----------------------------|
D|----------------------------|
A|----------------------------|
D|-8--x-x-7--x-x-10--x-x-(12)-|

WAIT

G|------|
D|------|
A|------|
D|-0~~~-|

WAIT x2

Slow Part
G|-------------------------------------------------------------|
D|----------------------------2~~~~----2~~~~----2~~~~----2~~~~-|
A|-3~~~~----2~~~~----5~~~~-------------------------------------|
D|-------------------------------------------------------------| (x3)

G|----------------------------------|
D|----------------------------------|
A|-3~~~~----2~~~~----5~~~~----------|
D|----------------------------0~~~~-|
            
Submit corrections

comments powered by Disqus
↑ Back to top | Poison The Well Bass for My Mirror No Loger Reflects. Lyrics for acoustic guitar and electric guitar. Tablatures and chords are parodies/interpretations of the original songs. You may use it for private study, scholarship, research or language learning purposes only