» » »

Poison The Well, Material Christ Tabs (ver.1)

Artists:  A B C D E F G H I J K L M N O P Q R S T U V W X Y Z # 

Material Christ Tabs (ver.1)

Poison The Well Tabs
Rating:
0/5 (0 votes)
Material Christ lessons Tabs too difficult? Try these video lessons and learn fast
                POISON THE WELL - MATERIAL CHRIST

    eb|-----------------------------|
    Bb|-----------------------------|
GTR Gb|-4---------------------------|
1+2 Db|-4---------------------------| x4
    Ab|-2---------------------------|
    Eb|-----------------------------|

    eb|----------------------------------------|
    Bb|----------------------------------------|
GTR Gb|-4-4-4-4--------------------------------|
 1  Db|-4-4-4-4-5--5--5--5-------2-----------2-| x5
    Ab|-2-2-2-2-5--5--5--5-2-2-2-2-2-2-2-2-2-2-|
    Eb|---------3--3--3--3-0-0-0-0-0-0-0-0-0-0-|
                           P MPM   P M P MPM

    eb|----------------------------------------|
    Bb|----------------------------------------|
GTR Gb|-4-4-4-4--------------------------------|
 2  Db|-4-4-4-4------------------2-----------2-| x5
    Ab|-2-2-2-2-2--2--2--2-2-2-2-2-2-2-2-2-2-2-|
    Eb|---------3--3--3--3-0-0-0-0-0-0-0-0-0-0-|
                           P MPM   P M P MPM

    eb|---------------------------|
    Bb|---------------------------|
GTR Gb|---------------------------|
1+2 Db|-4-4-4-4-------------------|
    Ab|-2-2-2-2--2-2-2-2--2-2-2-2-|
    Eb|----------3-3-3-3--0-0-0-0-|
        P M P M  P M P M  P M P M 

    eb|-----------------|
    Bb|-8--8--8--8--8-8-|
GTR Gb|-7--7--7--7--7-7-|
 1  Db|-5--5--5--5--5-5-|
    Ab|-----------------|
    Eb|-----------------|

    eb|-----------------|
    Bb|-----------------|
GTR Gb|-----------------|
 2  Db|-7--7--7--7--7-7-|
    Ab|-5--5--5--5--5-5-|
    Eb|-----------------|

    eb|-------------------------------|------ x2----------|
    Bb|-------------------------------|-------------------|
GTR Gb|-9-9-9-9-9-9-14-14-14-14-14-14-|-11-11-11-11-11-11-|
 1  Db|-------------------------------|-------------------| x3
    Ab|-7-7-7-7-7-7-12-12-12-12-12-12-|-9--9--9--9--9--9--|
    Eb|-------------------------------|-------------------|

    eb|-------------------------------------------------|
    Bb|-------------------------------------------------|
GTR Gb|-------------------------------------------------|
 2  Db|-2-2-2-2-2-2-7-7-7-7-7-7-4-4-4-4-4-4-4-4-4-4-4-4-| x3
    Ab|-2-2-2-2-2-2-0-0-0-0-0-0-0-0-0-0-0-0-0-0-0-0-0-0-|
    Eb|-0-0-0-0-0-0-------------------------------------|

    eb|------------------------------------------|
    Bb|------------------------------------------|
GTR Gb|-9-9-9-9-9-9-14-14-14-14-14-14-7--7--7----|
 1  Db|-------------------------------7--7--7----|
    Ab|-7-7-7-7-7-7-12-12-12-12-12-12-5--5--5----|
    Eb|------------------------------------------|

    eb|---------------------------------------|
    Bb|---------------------------------------|
GTR Gb|-------------------------7--7--7--7----|
 2  Db|-2-2-2-2-2-2-7-7-7-7-7-7-7--7--7--7----|
    Ab|-2-2-2-2-2-2-0-0-0-0-0-0-5--5--5--5----|
    Eb|-0-0-0-0-0-0---------------------------|

    eb|-----------------------------------------------------|
    Bb|-----------------------------------------------------|
GTR Gb|---------2--------2------2---------5--------5------5-|
1+2 Db|-4-4-4-4-4--4-4-4-4--4-4-4-5-5-5-5-5--5-5-5-5--5-5-5-|
    Ab|-2-2-2-2-2--2-2-2-2--2-2-2-3-3-3-3-3--3-3-3-3--3-3-3-|
    Eb|-----------------------------------------------------|

---------------------------------------------------------------------------

    eb|-------------------------------------------------------------------|
    Bb|-------------------------------------------------------------------|
GTR Gb|-9-9-9--9-9-9--9--9--9-9-9-10-10-10--10-10-10--10--10-10--10-10-10-|
 1  Db|-------------------------------------------------------------------|
    Ab|-7-7-7--7-7-7--7--7--7-7-7-8--8--8---8--8--8---8---8--8---8--8--8--|
    Eb|-------------------------------------------------------------------|

    eb|---------------------------------------------------|
    Bb|---------------------------------------------------|
GTR Gb|---------------------------------------------------|
 2  Db|---------------------------------------------------|
    Ab|-2-2-2--2-2-2--2-2--2-2-2-3-3-3--3-3-3--3-3--3-3-3-|
    Eb|-0-0-0--0-0-0--0-0--0-0-0-1-1-1--1-1-1--1-1--1-1-1-|
        P MPM  P MPM  P M  P M P M P M  P MPM  P M  P MPM

PLAY SECTION x4
--------------------------------------------------------------------------

    eb|-----------------------------------|
    Bb|-----------------------------------|
GTR Gb|-----------------------------------|
 1  Db|-4-4-4-4---------2--2--2--2--2--2--|
    Ab|-2-2-2-2-2-------2--2--2--2--2--2--|
    Eb|---------3-------0--0--0--0--0--0--|
        P M P M

    eb|-----------------------------------|
    Bb|-----------------------------------|
GTR Gb|---------12------------------------|
 2  Db|-4-4-4-4---------2--2--2--2--2--2--|
    Ab|-2-2-2-2---------2--2--2--2--2--2--|
    Eb|-----------------0--0--0--0--0--0--|

    eb|----------------------------------------|
    Bb|----------------------------------------|
GTR Gb|-4-4-4-4--------------------------------|
 1  Db|-4-4-4-4-5--5--5--5-------2-----------2-| x5
    Ab|-2-2-2-2-5--5--5--5-2-2-2-2-2-2-2-2-2-2-|
    Eb|---------3--3--3--3-0-0-0-0-0-0-0-0-0-0-|
                           P MPM   P M P MPM

    eb|----------------------------------------|
    Bb|----------------------------------------|
GTR Gb|-4-4-4-4--------------------------------|
 2  Db|-4-4-4-4------------------2-----------2-| x5
    Ab|-2-2-2-2-2--2--2--2-2-2-2-2-2-2-2-2-2-2-|
    Eb|---------3--3--3--3-0-0-0-0-0-0-0-0-0-0-|
                           P MPM   P M P MPM

    eb|-----------------------------------------|
    Bb|-----------------------------------------|
GTR Gb|-----------------------------------------|
1+2 Db|-2---------------------------------------|
    Ab|-2---------------------------------------|
    Eb|-0---------------------------------------|

    eb|----------------------------------------------------|
    Bb|-5*-5*-5*-7*-7*-7*----------------------------------|
GTR Gb|-------------------5*-5*-5*----------5*-5*-5*-------|
 1  Db|----------------------------7*-7*-7*----------5*-5*-| x4
    Ab|----------------------------------------------------|
    Eb|----------------------------------------------------|

    eb|----------------------------------------------------|
    Bb|-12-------------------------------------------------|
GTR Gb|------------------12----------------9---------------|
 2  Db|----------------------------------------------------| x2
    Ab|----------------------------------------------------|
    Eb|----------------------------------------------------|

    eb|-----------------------------------------------------------------|
    Bb|-----------------------------------------------------------------|
GTR Gb|-----------------------------------------------------------------|
1+2 Db|-4-4-4-4-4-4-4-4-------------------------------------------------|
    Ab|-2-2-2-2-2-2-2-2-5-5-5-5-5-5-5-5-2-2-2-2-2-2-2-2-2-2-2-2-2-2-2-2-|
    Eb|-----------------3-3-3-3-3-3-3-3-0-0-0-0-0-0-0-0-0-0-0-0-0-0-0-0-|
        P M P M P M P M P M P M P M P M P M P M P M P M P M P M P M P M

    eb|----------------------------------------|
    Bb|----------------------------------------|
GTR Gb|-4-4-4-4--------------------------------|
 1  Db|-4-4-4-4-5--5--5--5-------2-----------2-| x5
    Ab|-2-2-2-2-5--5--5--5-2-2-2-2-2-2-2-2-2-2-|
    Eb|---------3--3--3--3-0-0-0-0-0-0-0-0-0-0-|
                           P MPM   P M P MPM

    eb|----------------------------------------|
    Bb|----------------------------------------|
GTR Gb|-4-4-4-4--------------------------------|
 2  Db|-4-4-4-4------------------2-----------2-| x5
    Ab|-2-2-2-2-2--2--2--2-2-2-2-2-2-2-2-2-2-2-|
    Eb|---------3--3--3--3-0-0-0-0-0-0-0-0-0-0-|
                           P MPM   P M P MPM

    eb|----------------------------------------|
    Bb|----------------------------------------|
GTR Gb|-4-4-4-4--------------------------------|
 1  Db|-4-4-4-4-5--5--5--5-2-------------------| 
    Ab|-2-2-2-2-5--5--5--5-2-------------------|
    Eb|---------3--3--3--3-0-------------------|

    eb|----------------------------------------|
    Bb|----------------------------------------|
GTR Gb|-4-4-4-4--------------------------------|
 2  Db|-4-4-4-4------------2-------------------| 
    Ab|-2-2-2-2-2--2--2--2-2-------------------|
    Eb|---------3--3--3--3-0-------------------|

Gradual slow down.
                           
            

comments powered by Disqus
↑ Back to top | Poison The Well Tabs for Material Christ. Lyrics for acoustic guitar and electric guitar. Tablatures and chords are parodies/interpretations of the original songs. You may use it for private study, scholarship, research or language learning purposes only