» » »

Loved Ones Tabs (ver.1)

Artists:  A B C D E F G H I J K L M N O P Q R S T U V W X Y Z # 

Loved Ones Tabs (ver.1)

Poison The Well
Rating:
0/5 (0 votes)

Hard to play? Try these video lessons and learn fast.
                tuning: Drop D

this is my first tab ever, so be gentle, it sounds 
right to me, but what do i know. feel free to send 
or catch me on aim at matthowerules.

the strumming is easy in this song so i half assed 
it here. i also didnt tab that very end part.

(0:11)
e -------------------------------------------------
B -------------------------------------------------
G -------------------------------------------------
D -000-777-333-000-777-333-000-888-333-000-888-333-
A -000-777-333-000-777-333-000-888-333-000-888-333-
D -000-777-333-000-777-333-000-888-333-000-888-333- (x4)

(0:34)
e -------------------------------------------------
B -------------------------------------------------
G -------------------------------------------------
D -77777777-88888-333-77777777-88888-333-----------
A -77777777-88888-333-77777777-88888-333-----------
D -77777777-88888-333-77777777-88888-333-----------

(0:46)
e -------------------------------------------------
B -------------------------------------------------
G -6666-7777-10101010-6666-7777-10101010-----------
D -xxxx-xxxx-x-x-x-x--xxxx-xxxx-x-x-x-x------------
A -4444-5555-8-8-8-8--4444-5555-8-8-8-8------------
D -------------------------------------------------

(0:57)
e ------5------------------------------------------
B --------5----------------------------------------
G ----6-----6-----10-----7-------------------------
D -7~----------8~-----5~---------------------------
A -7~----------8~-----5~---------------------------
D -7~----------8~-----5~--------------------------- (x4)

(1:20) they are 10's and 12's, not 0's, 1's, and 2's
e ---------------------------------------------------------
B ---------------------------------------------------------
G -12121212-9999-5555-10101010-12121212-2222-5555-10101010-
D -10101010-7777-3333-8-8-8-8--10101010-0000-3333-8-8-8-8--
A -10101010-7777-3333-8-8-8-8--10101010-0000-3333-8-8-8-8--
D -10101010-7777-3333-8-8-8-8--10101010-0000-3333-8-8-8-8-- (x2)

little ending thing
(3:26)
e -------------------------------------------------
B -------------------------------------------------
G -------------------------------------------------
D -------------------------------------------------
A -7~--8~--10~--7~--8~--10~------------------------
D -7~--8~--10~--7~--8~--10~------------------------


structure
------------
intro
buildup1
buildup2
chorus
bridge
intro
chorus
bridge
intro
ending
            
Hard to play? Try these video lessons and learn fast. | Correct




comments powered by Disqus
↑ Back to top | Tablatures and chords are parodies/interpretations of the original songs. You may use it for private study, scholarship, research or language learning purposes only