» » »

Poison The Well, Ghostchant Bass tabs (ver.1)

Artists:  A B C D E F G H I J K L M N O P Q R S T U V W X Y Z # 

Ghostchant Bass tabs (ver.1)

Poison The Well Tabs
 Rating:
4/5 (4 votes)
Ghostchant lessons Tabs too difficult? Try these video lessons and learn fast
1
                /This is a really awesome song by Poison the Well, i saw them not long ago with
deftones and they kicked butt, i got to see the bass player pretty closely so

i'm pretty confident about this tab, well here it goes, please rate this tab! thanx

  * -hold note

 0:00 Guitar,

 no bass until 0:11
-Riff 1, verse
F----------------------------------------------------------------------|
C-----------------/1212121212----------------/1313131313  those are 12-|s and
G-------------------------------------------------------  13-----------|s
C--6/7-0--6/7-0----------------6/7-0--6/7-0----------------------------|

4 times then

-Riff 2
F----------------/77777----------------/88888-----------|
C-------------------------------------------------------|
G-------------------------------------------------------|
C--6/7-0--6/7-0----------6/7-0--6/7-0-------------------|

3 1/2 times then

F-------------------------------------------------------|
C-------------------------------------------------------|
G-------------------------------------------------------|
C---6/7-0--6/7-0-6--------------------------------------|

-0:35 Chorus Riff 3                                          these are 11's
F---------------------------------------------------------------------------|
C-----------11*---11-11-9*--9-9-7--7----------11*-11-11-9*-9-/1111\--/1111\-|
G-----9-11-------------------------------9-11-------------------------------|
C--7----------------------------------7-------------------------------------|
"no one around..."

F-----------11*---11-11-9*--9-9-7--7----------11*-11-11-9-9-/1111\-/1111\-|
C-------------------------------------------------------------------------|
G-----9-11-------------------------------9-11-----------------------------|
C--7----------------------------------7-----------------------------------|
"you told me they..."

F-/1111\-/1111\
C--------------|
G--------------|
C--------------|

-1:01 Bridge
F-------------------                F------------------|
C-------------------                C------------------|
G-------------------  15 times      G------------------|
C--7\6/7---XXXXXX---    then        C---7\4/7----------|
"how many times..."

-1:26 Breakdown or whatever
F---------------------------------------------------------------|
C---------------------------------------------------------------|
G-----------8*----7*----12*----11*----8*----7*----12*----11*----|
C---------------------------------------------------------------|
"in the back...

F---------------------------------------------------------------|
C--------/14-14-1414-14-14-14\12-1212-12\10-10------------------|
G-8*--------------------------------------------12*----11*------|
C---------------------------------------------------------------|
       "they...  cut...                      ...the ... tendons

F---------------------------------------------------------------|
C------------/14-14-1414-14-14-14\12-1212-12\10-10--------------|
G-8*--------------------------------------------------12*---11*-|
C---------------------------------------------------------------|
...so you'd  be...                                      ...to wasted
                                                         to hold it all...

-2:14 chorus, play riff 2 but add an extra slide on 11 fret on g string at the end.
F----/1111\----|
C--------------|
G--------------|
C--------------|

-only guitar at 2:40

-2:52 last verse
-play riff 1, 4 times
-play riff 2, 4 times, then

-3:16 Outro
F-------------                F-----------------|
C-------------                C-----------------|
G-------------  6 times then  G-----------------|
C--6/7--6-----                C--6/7--7--7--7-6-|

well there it is, hope its helpful, and again please rate this tab!
later.
            
Submit corrections

comments powered by Disqus
↑ Back to top | Poison The Well Bass for Ghostchant. Lyrics for acoustic guitar and electric guitar. 1 Tablatures and chords are parodies/interpretations of the original songs. You may use it for private study, scholarship, research or language learning purposes only