» » »

12 23 93 Bass tabs (ver.1)

Artists:  A B C D E F G H I J K L M N O P Q R S T U V W X Y Z # 

12 23 93 Bass tabs (ver.1)

Poison The Well
Rating:
0/5 (0 votes)

Hard to play? Try these video lessons and learn fast.
                Intro
F|-----------|
C|-----------|
G|-----------|
D|-3-4-5-4-2-|x1


Verse
F|------------------------------------------|
C|------------------------------------------|
G|----------------------------------------1-|
D|-0000000-0-0-0-00000-0000000-0-0-0--0-0---|x3

End Of Verse
F|------------------------------------------------|
C|------------------------------------------------|
G|----------------------------------------1-----1-|
D|-0000000-0-0-0-00000-0000000-0-0-0--0-0---0-0---|x1


Chorus 1
F|--------------------------------------------------|
C|--------------------------------------------------|
G|-2-2-2-2-2-2-2-2-1-1-1-1/5-5-5--33-33-33-33--3--3-|
D|--------------------------------------------------|x4

Verse x1

End of Verse


Bridge
F|--------------------------------|
C|--------------------------------|
G|-4~----4~-3--0~-----------------|
D|-----------------4~-2--2-2--2-2-|x1

F|----------------7--------------7---------------7-|
C|-------------67--------------67--------------67--|
G|-444444444444-----44444444-67----444444444444----|
D|-------------------------------------------------|x1

F|---------------------------7-------------7---------------7-|
C|-------------------------67------------67--------------67--|
G|-4444-4444---444444444444---44444444-67----444444444444----|
D|-----------------------------------------------------------|x1

F|-----------------------|
C|-----------------------|
G|-444444444444--2-2-2-2-|
D|-----------------------|x1


Chorus 2
F|----------------------------|
C|--------------------7-7-----|
G|-4--4-4--3--3-3-------------|
D|-----------------5------4-0-|x8


Bridge 2
F|---------------------------------|
C|---------------------7-7-----6-6-|
G|-4-4-4-4-4-4-4-4-----------------|
D|-----------------5-5-----4-4-----|x4

Chorus 2 (x7)


Ourto
F|------------------------------|
C|--------------------6-6-------|
G|-4-4-4-4--3-3-3-3----------4~-|
D|------------------5-----4-----|x1

PTW is one of my favorite bands, and rate this tab please.
This is probobly one of the best songs off of The Opposite
of December. Thanks for checking out the tab. 

-John
            
Hard to play? Try these video lessons and learn fast. | Correct




comments powered by Disqus
↑ Back to top | Tablatures and chords are parodies/interpretations of the original songs. You may use it for private study, scholarship, research or language learning purposes only