» » »

Nothing But A Good Time Bass tabs (ver.1)

Artists:  A B C D E F G H I J K L M N O P Q R S T U V W X Y Z # 

Nothing But A Good Time Bass tabs (ver.1)

Poison
Rating:
0/5 (0 votes)

Hard to play? Try these video lessons and learn fast.
                Here's Nothin But a Good Time by Poison
This is a great song so enjoy!

Intro

Gb|-----------------------------------------------------------------| x2
Db|-----------------------------------------------------------------|
Ab|-------------------------------------------------5---5-5-5-5-5-5-|
Eb|--5-5-5-5-5-5-5-5-5-5-5-5-5-5-5-3---3-3-3-3-3-3-3----------------|

Verse

Gb|-----------------------------------------------------------------| x2
Db|-----------------------------------------------------------------|
Ab|-----------------------------------------------------------------|
Eb|--17/0--------------------------3-----------------5--------------|

Pre Chorus

Gb|-----------------------------------------------------------------| x2
Db|-----------------------------------------------------------------|
Ab|-------------------------------------------------5---5-5-5-5-5-5-|
Eb|--5-5-5-5-5-5-5-5-5-5-5-5-5-5-5-3---3-3-3-3-3-3-3----------------|

Chorus

Gb|----------------------------------------------------------------|
Db|-------------------------------5---5-5-5-5-5-5-5----------------|
Ab|------------------------------------------------5-5-5-5-5-5-5-5-|
Eb|--5-5-5-5-5-5-5-5-5-5-5-5-5-5-5---------------------------------|

Gb|--------------------| x2
Db|--------------------|
Ab|--------------------|
Eb|--5---5-5-5-5-5-5-5-|

Verse

Gb|-----------------------------------------------------------------| x2
Db|-----------------------------------------------------------------|
Ab|-----------------------------------------------------------------|
Eb|--17/0--------------------------3-----------------5--------------|

Pre Chorus

Gb|-----------------------------------------------------------------| x2
Db|-----------------------------------------------------------------|
Ab|-------------------------------------------------5---5-5-5-5-5-5-|
Eb|--5-5-5-5-5-5-5-5-5-5-5-5-5-5-5-3---3-3-3-3-3-3-3----------------|

Chorus

Gb|----------------------------------------------------------------|
Db|-------------------------------5---5-5-5-5-5-5-5----------------|
Ab|------------------------------------------------5-5-5-5-5-5-5-5-|
Eb|--5-5-5-5-5-5-5-5-5-5-5-5-5-5-5---------------------------------|

Gb|--------------------| x2
Db|--------------------|
Ab|--------------------|
Eb|--5---5-5-5-5-5-5-5-|

Bridge

Gb|----------------------------------------------------| x2
Db|----------------------------------------------------|
Ab|----------------------------------5-----------------|
Eb|--5---------------3-------------------------------5-|

Chorus

Gb|----------------------------------------------------------------|
Db|-------------------------------5---5-5-5-5-5-5-5----------------|
Ab|------------------------------------------------5-5-5-5-5-5-5-5-|
Eb|--5-5-5-5-5-5-5-5-5-5-5-5-5-5-5---------------------------------|

Gb|--------------------| x4
Db|--------------------|
Ab|--------------------|
Eb|--5---5-5-5-5-5-5-5-|

Gb|-------|
Db|-------|
Ab|-------|
Eb|--17/0-|

Outro

Gb|----------------------------------------------------------------|
Db|-------------------------------5---5-5-5-5-5-5-5----------------|
Ab|------------------------------------------------5-5-5-5-5-5-5-5-|
Eb|--5-5-5-5-5-5-5-5-5-5-5-5-5-5-5---------------------------------|

Gb|--------------------| x4
Db|--------------------|
Ab|--------------------|
Eb|--5---5-5-5-5-5-5-5-|

End on Eb - 5/0

Thats it hope u enjoy it!
            
Hard to play? Try these video lessons and learn fast. | Correct




comments powered by Disqus
↑ Back to top | Tablatures and chords are parodies/interpretations of the original songs. You may use it for private study, scholarship, research or language learning purposes only