>
 >
Fire 1

Fire 1 Guitar Tabs

Pointer Sisters - Fire 1 chords, tabs, tablatures, lyrics

Guitar lessons | Add/correct | Request | Top 50 tabs Artists:  A B C D E F G H I J K L M N O P Q R S T U V W X Y Z 0-9

Fire 1 Guitar Tabs – Pointer Sisters

CD, Sheet music, Poster

Do you like Fire 1? Share with your friends now
Bass TabsChordsChords v2Chords v3TabsTabs v2Ukulele
My Version to Play this song..

  Intro:   x-chuck
           V-strum
                  
   x   x x x x              x   x x x x                   
e|------------------------|------------------------|
B|------------------------|------------------------|
G|-6---6-6-6-6------------|-6---6-6-6-6------------|
D|-6---6-6-6-6------------|-6---6-6-6-6------------|
A|-4---4-4-4-4------------|-4---4-4-4-4------------|
E|-4---4-6-6-4------------|-4---4-6-6-4------------| x2


   v   x x x x              x   x x x x
e|-4----------------------|------------------------|
B|-4----------------------|------------------------|
G|-6---6-6-6-6------------|-6---6-6-6-6------------|
D|-6---6-6-6-6------------|-6---6-6-6-6------------|
A|-4---4-4-4-4------------|-4---4-4-4-4------------|
E|-4---4-6-6-4------------|-4---4-6-6-4------------| x2

Play the Chords like this if it's in parenthasis eg. there is a (F#) & a F#
 
(C#)
   x   x x x x         x    x x x x
e|------------------------|------------------------|
B|------------------------|------------------------|
G|-6---6-6-6-6---------6--|-6-6-6-6----------------|
D|-6---6-6-6-6---------6--|-6-6-6-6----------------|
A|-4---4-4-4-4---------4--|-4-4-4-4----------------|
E|-4---4-6-6-4---------4--|-4-6-6-4----------------|

(F#)                               
  x   x x x x          x    x x x x                                        
|------------------------|------------------------|
|-7---7-7-7-7----------7-|--7-7-7-7---------------|
|-6---6-6-6-6----------6-|--6-6-6-6---------------|
|-4---4-4-4-4----------4-|--4-4-4-4---------------|
|-4---4-4-4-4----------4-|--4-4-4-4---------------|
|-4---4-6-6-4----------4-|--4-6-6-4---------------|
 
 (Am#)                              
  x  x x x x           x   x x x x                                         
|------------------------|------------------------|
|------------------------|------------------------|
|-6--6-6-6-6-----------6-|-6-6-6-6----------------|
|-8--8-6-6-8-----------8-|-8-6-6-8----------------|
|-8--8-6-6-8-----------8-|-8-6-6-8----------------|
|-6--6-6-6-6-----------6-|-6-6-6-6----------------|
 
 F#                         
   x  x  x  x  x  x  x  x
|--------------------------|
|--------------------------|
|--3--3--3--3--3--3--3--3--|
|--4--4--4--4--4--4--4--4--|
|--4--4--4--4--4--4--4--4--|
|--2--2--2--2--2--2--2--2--|

 G#                         
   x  x  x  x  x  x  x  x
|--------------------------|
|--------------------------|
|--5--5--5--5--5--5--5--5--|
|--6--6--6--6--6--6--6--6--|
|--6--6--6--6--6--6--6--6--|
|--4--4--4--4--4--4--4--4--|

 C#                        
   x  x  x  x  x  x  x  x
|--------------------------|
|--------------------------|
|--6--6--6--6--6--6--6--6--|
|--6--6--6--6--6--6--6--6--|
|--4--4--4--4--4--4--4--4--|
|--4--4--4--4--4--4--4--4--|

                  (C#)
I'm riding in your car, you turn on the radio. 
(C#)              (F#)               (C#)
You're pullin' me close, I just say no. 
              (F#)                         (Am#)
I say I don't like it, but you know I'm a liar. 
               F#    G#   (C#)
'Cause when we kiss, ooh, fire. 

          (C#)                     (C#)
Late at night, you're taking me home. 
                  (F#)                    (C#)
You say you wanna stay, I say I wanna be alone. 
              (F#)                          (Am#)
I say I don't love you, but you know I'm a liar. 
               F#    G#      (C#)
'Cause when we kiss, ooh, fire. 

bridge:
          F#               C#
You had a hold on me right from the start, 
  G#                       C#
a grip so tight I couldn't tear it apart.
   F#                         C#
My nerves all jumpin', actin' like a fool
           G#                       G# 
Well your kisses they burn, but my heart stays cool. 

              (C#)                  (C#)                     
Romeo and Juliet, Samson and Delilah.
              (F#)                        (C#) 
Baby, you can bet, a love they couldn't deny.
             (F#)                      (Am#) 
My words say split, but my words they lie. 
               F#    G#     (C#)
'Cause when we kiss, ooh, fire. 

Solo:

(C#)-(C#)-(F#)-(C#)-(F#)-(Am#)-F#-G#-(C#)

outro:

(C#)                  (C#)                          (C#)
Hot kisses like fire. I like what you're doing now, fire.
(C#)                  (C#)                          (C#) 
Fill me up with fire, touching me burning me with fire





Comments


Popular Pointer Sisters tabs & chords
Automatic Bass Tabs
Fire Bass Tabs
Fire Chords
Fire 1 Chords
Fire 2 Chords
I'm So Excited Chords
I'm So Excited 1 Chords
Fire Tabs
Fire Ukulele
Im So Excited Ukulele


Song lyrics



↑ Back to top | Tablatures and chords are parodies/interpretations of the original songs. You may use it for private study, scholarship, research or language learning purposes only
© 2014 AZChords.com Contact us | Privacy policy | DMCA | Add/correct tabs | Request tabs | Top 50 tabs