» » »

Youth Of A Nation Bass tabs (ver.4)

Artists:  A B C D E F G H I J K L M N O P Q R S T U V W X Y Z # 

Youth Of A Nation Bass tabs (ver.4)

P.O.D.
Rating:
0/5 (0 votes)

Tabs too difficult? Try these video lessons and learn fast.
                Youth Of The Nation
P.O.D.

This is My First Bass Guitar Tab And I Did My best and what I hear is what
I type so enjoy!!!!! P>O *~§£Th~*
You can do this on 4 or 5 string by drop D’n the 4 string!!

First Part of the Verse
G/--------------------------------------------------|
D/--------------------------------------------------|
A/--------------------------------------------------|
E/-------5------------------------------------------|
B/--2--0—----2-3-0---2~-----------------------------|


Second Part of the verse
G/--------------------------------------------------|
D/--------------------------------------------------|
A/-------5---7--------------------------------------|
E/-------3---5--3-3-3-3-3-3-3-5---------------------|
B/---3-0--------------------------------------------|

Chorus
G/--------------------------------------------------|
D/--------------------------------------------------|
A/---------------REPEAT-----------------------------|
E/-----------------4 Times--------------------------|
B/--1~-4~-------------------------------------------|


Solo Part
G/--------------------------------------------------|
D/--------------------------------------------------|
A/--------------------------------------------------|
E/--------------------------------------------------|
B/---2-0---5~----0-0~-------------------------------|

HOPE YOU LIKE IT!!!!!!!!!!!
DAMO
            
Tabs too difficult? Try these video lessons and learn fast.


comments powered by Disqus
↑ Back to top | Tablatures and chords are parodies/interpretations of the original songs. You may use it for private study, scholarship, research or language learning purposes only