» » »

P.O.D., Your Eyes Tabs (ver.1)

Artists:  A B C D E F G H I J K L M N O P Q R S T U V W X Y Z # 

Your Eyes Tabs (ver.1)

P.O.D. Tabs
Rating:
0/5 (0 votes)
Your Eyes lessons Tabs too difficult? Try these video lessons and learn fast
                
E A D G B E

. = staccato
Use a reverb effect for the song

INRTRO/VERSE
    .                   .
E|--7-------------------5------------------|
B|--8-------------------6------------------|
G|--9--(Play 8 times)---7--(Play 8 times)--|
D|--9-------------------7------------------|
A|--7-------------------5------------------|
E|--x-------------------x------------------|
    Emn                 Dmn

Chorus plays the same chords but 4 times each


another way to play the chords
   .              .
|--7---|       |--5---|
|--8---|       |--6---|
|--9---|       |--7---|
|--9---|       |--7---|
|--x---|       |--x---|
|--x---|       |--x---|
            

comments powered by Disqus
↑ Back to top | P.O.D. Tabs for Your Eyes. Lyrics for acoustic guitar and electric guitar. Tablatures and chords are parodies/interpretations of the original songs. You may use it for private study, scholarship, research or language learning purposes only