» » »

P.O.D., Will You Tabs (ver.3)

Artists:  A B C D E F G H I J K L M N O P Q R S T U V W X Y Z # 

Will You Tabs (ver.3)

P.O.D. Tabs
 Rating:
4/5 (4 votes)
Will You lessons Tabs too difficult? Try these video lessons and learn fast
1
                Tuning: One Step Down


Intro:
D|----------------------------------------------|
A|----------------------------------------------|
F|--11---14----11---14----9--------7-7-7-6---7--|
C|------------------------10---------------7----|  x2
G|--9----14----9----12----10--------------------|
D|-------------10---10----8----5----------------|


Verse:
D|-----------------------------------------------------|
A|-----------------------------------------------------|
F|-------------------------------4-4-4--------2-2-2-4--|
C|--9------------5------------2--------2---2-----------|  x4
G|--7--7-9-9-9---3--5-5-7-7---0------------0-----------|
D|-----------------------------------------------------|


Intro:  x2


Verse:  x4


Intro:  x4


Bridge:
D|--------|   |--0~------------------0~--|
A|--------|   |--0~---5-8-7-0--------0~--|
F|--------|   |--9~-------------6h7--6~--|
C|---10---|   |--9~-----------7------7~--|
G|---8----|   |--7~-----------0------0~--|
D|--------|   |--------------------------|

D|-----0~-------0~-------0~--|
A|-----0~-------0~-------0~--|
F|-----9~-------5~-------6~--|
C|-----9~-------5~----7--7~--|  x2
G|--7--7~----3--3~----0--0~--|
D|---------------------------|


Intro:  x4


Outro:
D|-------------------------------------------------------------------|
A|-------------------------------------------------------------------|
F|--11-11---11-11----11-11---11-11----9--9----9--9-------7-6----7-6--|
C|------------------------------------10-10---10-10------------------|  x2
G|--9--9----9--9-----9--9----9--9-----10-10---10-10------------------|
D|-------------------10-10---10-10----8--8----8--8-----5------5------|

D|---------|
A|---------|
F|---11~---|
C|---------|
G|---9~----|
D|---------|


                                    END
            
Submit corrections

comments powered by Disqus
↑ Back to top | P.O.D. Tabs for Will You. Lyrics for acoustic guitar and electric guitar. 1 Tablatures and chords are parodies/interpretations of the original songs. You may use it for private study, scholarship, research or language learning purposes only