» » »

Will You Tabs (ver.2)

Artists:  A B C D E F G H I J K L M N O P Q R S T U V W X Y Z # 

Will You Tabs (ver.2)

P.O.D.
Rating:
0/5 (0 votes)

Hard to play? Try these video lessons and learn fast.
                Tuning: Standard (EADGBe)

decent band, decent single, have fun.

.  = palm mute

Intro/Chorus
E----------------------------------------------------------------
B----------------------------------------------------------------
G--9999-12121212-9999-12121212-777x777---------------------------   x2
D--xxxx-x x x x -xxxx-x x x x -xxxxxxx--101010-9-5-0-------------
A--7777 10101010 7777-10101010-555x555---------------------------
E----------------------------------------------------------------

Verse
E----------------------------------------------------------------
B----------------------------------------------------------------
G--7777x7-7-9-10--3333x3-3-5-7---------77777p0--------55555h7----   x4   
D--7777x7-7-9-10--3333x3-3-5-7--5555x5---------5555x5------------ 
A--5555x5-5-7-8 --1111x1-1-3-5--5555x5---------5555x5------------
E-------------------------------3333x3---------3333x3------------
   ....           ....

On 2nd Chorus play Intro/Chorus riff 4 times instead of 2 then play  this:

Bridge (Clean)
E----------------------------------------------------------------
B----------------------------------------------------------------
G----9999x9999x9999------7-7------7-7-----7-7------7-7-----------  x1 then
D----9999x9999x9999--------7-7-3----7-5-----7-7-3----7-5---------
A----7777x7777x7777-----5--5-7-3-5--5-5--5--5-7-3-5--5-5--------- 
E----------------------------5-1------3-------5-1------3---------

E----------------------------------------------------------------
B----------------------------------------------------------------
G--9999-12121212-9999-12121212-7777777777777---------------------   x2
D--xxxx-x x x x -xxxx-x x x x -xxxxxxxxxxxxx---------------------
A--7777 10101010 7777-10101010-5555555555555---------------------
E----------------------------------------------------------------

Distortion again
E----------------------------------------------------------------
B----------------------------------------------------------------
G--9999-12121212-9999-12121212-777x777---------------------------   x4
D--xxxx-x x x x -xxxx-x x x x -xxxxxxx--101010-9-5-0-------------
A--7777 10101010 7777-10101010-555x555---------------------------
E----------------------------------------------------------------

Scream outro
E----------------------------------------------------------------
B----------------------------------------------------------------
G--1010-1010-99-99-77-77-----------------------------------------   x2
D--x x -x x -xx-xx-xx-xx------10-9-5-10-9-5----------------------
A--8 8 -8-8 -77-77-55-55-----------------------------------------
E----------------------------------------------------------------

End note:
E----------------------------------------------------------------
B----------------------------------------------------------------
G--9-------------------------------------------------------------
D--x-------------------------------------------------------------
A--7-------------------------------------------------------------
E----------------------------------------------------------------
            
Hard to play? Try these video lessons and learn fast. | Correct




comments powered by Disqus
↑ Back to top | Tablatures and chords are parodies/interpretations of the original songs. You may use it for private study, scholarship, research or language learning purposes only